Guitar Tabs Explorer
Nickelback guitar tabs for Feed the machine

Feed The Machine tab


Be the first to rate

Jamplay guitar lessons

Feed The Machine tab by Nickelback

Guitar tabs with lyrics

Print

Artist : Nickelback
Title : Feed the Machine
Album : Feed the Machine
Tuning : Drop C chord diagramCC
BPM : 136

Intro:

D|--------------------------------------------------|Only play this once (1x)
A|--------------------------------------------------|
F| chord diagramF|F|--------------------------------------------------|
A|--------------------------------------------------|
G|--0--------------8p5-----3h5----------------------|
C| chord diagramC|C|--0--0-0-5p3-0-0-----0-0--------------------------|
PM     * *     * *     * *

Full Intro - Both guitars:

D|--------------------------------------------------|----------------------------------------------------|
A|--------------------------------------------------|----------------------------------------------------|
F| chord diagramF|F|--------------------------------------------------|----------------------------------------------------|
C| chord diagramC|C|--0-----------------------------------------------|--0-------------------------------------------------|
G|--0--------------5--x-x--------------8p5-----3h5--|--0--------------5----x-x--------------8p5-----3h5--|
C| chord diagramC|C|--0--0-0-5p3-0-0----x-x--0-0-5p3-0-0-----0-0------|--0--0-0-5p3-0-0----0-x-x--0-0-5p3-0-0-----0-0------|
PM     * *     * *         * *     * *     * *            * *     * *           * *     * *     * *

D|--------------------------------------------------|----------------------------------------------------|
A|--------------------------------------------------|----------------------------------------------------|
F| chord diagramF|F|--------------------------------------------------|----------------------------------------------------|
C| chord diagramC|C|--0-----------------------------------------------|--0-------------------------------------------------|
G|--0--------------5--x-x--------------8p5-----3h5--|--0--------------5----x-x--------------8p5-----3h5--|
C| chord diagramC|C|--0--0-0-5p3-0-0----x-x--0-0-5p3-0-0-----0-0------|--0--0-0-5p3-0-0----0-x-x--0-0-5p3-0-0-----0-0------|
PM     * *     * *         * *     * *     * *            * *     * *           * *     * *     * *

Pre verse - rhythm:

D|--------------------------|Let the chord ring out throughout the first 4 beats of the verse
A|--------------------------|
F| chord diagramF|F|--------------------------|
C| chord diagramC|C|--------------------------|
G|-0~-----------------------|
C| chord diagramC|C|-0~-----------------------|

[Verse - lead clean/delay)

D|--------------------------|-----------------------------|
A|--------------------------|-----------------------------|
F| chord diagramF|F|---------------------14---|--------------9----------10--|
C| chord diagramC|C|--12--12-12--12-12-12-----|--10-10--10-10---10-10-10----|
G|--------------------------|-----------------------------|
C| chord diagramC|C|--------------------------|-----------------------------|
PM      *  *   *  *  *         *  *   *  *    *  *  *

D|--------------------------|-----------------------------|
A|--------------------------|-----------------------------|
F| chord diagramF|F|---------------------14---|--------------9-------10-----|
C| chord diagramC|C|--12--12-12--12-12-12-----|--10-10--10-10---10-10---12--|
G|--------------------------|-----------------------------|
C| chord diagramC|C|--------------------------|-----------------------------|
PM      *  *   *  *  *         *  *   *  *    *  *

D|--------------------------|-----------------------------|
A|--------------------------|-----------------------------|
F| chord diagramF|F|---------------------14---|--------------9----------10--|
C| chord diagramC|C|--12--12-12--12-12-12-----|--10-10--10-10---10-10-10----|
G|--------------------------|-----------------------------|
C| chord diagramC|C|--------------------------|-----------------------------|
PM      *  *   *  *  *         *  *   *  *    *  *  *

Rhythm guitar kicks in
D|--------------------------|-----------------------------|
A|--------------------------|-----------------------------|
F| chord diagramF|F|---------------------14---|--------------9-------10-----|
C| chord diagramC|C|--12--12-12--12-12-12-----|--10-10--10-10---10-10---12--|
G|--------------------------|-----------------------------|
C| chord diagramC|C|--------------------------|-----------------------------|
PM      *  *   *  *  *         *  *   *  *    *  *

Verse - Rythm:
D|--------------------------------|--------------------------------|
A|--------------------------------|--------------------------------|
F| chord diagramF|F|--------------------------------|--------------------------------|
C| chord diagramC|C|--0--0----0--0----0--0----0--0--|--0--0----0--0----0--0----0--0--|
G|--0--0----0--0----0--0----0--0--|--0--0----0--0----0--0----0--0--|
C| chord diagramC|C|--0--0----0--0----0--0----0--0--|--0--0----0--0----0--0----0--0--|

Pre chorus - both guitars:

D|-------------------------|-------------------------|-------------------------|-------------------------|
A|-------------------------|-------------------------|-------------------------|-------------------------|
F| chord diagramF|F|--14--14-14---14--14-14--|--14--14-14---14--14-14--|--14--14-14---14--14-14--|--14--14-14---14--14-14--|
C| chord diagramC|C|--x---x--x----x---x--x---|--12--12-12---12--12-12--|--x---x--x----x---x--x---|--12--12-12---12--12-12--|
G|--x---x--x----x---x--x---|--10--10-10---10--10-10--|--x---x--x----x---x--x---|--10--10-10---10--10-10--|
C| chord diagramC|C|--12--12-12---12--12-12--|--10--10-10---10--10-10--|--12--12-12---12--12-12--|--10--10-10---10--10-10--|

D|-------------------| Small lick before the chorus
A|-------------------|
F| chord diagramF|F|-------------------|
C| chord diagramC|C|-------------------|
G|------8p5-----3h5--|
C| chord diagramC|C|--0-0-----0-0------|
PM  * *     * *

Chorus - both guitars: Listen to the song for the excact rhyhtm timing

D|-------------------------------------------------------------------------------|
A|-------------------------------------------------------------------------------|
F| chord diagramF|F|-------------------------------------------------------------------------------|
C| chord diagramC|C|-------------------------------------------------------------------------------|
G|--0--0-0-0-3/10\8--8-8-8-8--8-8-8-8--10--5--5-5-5-5-5--3--5--5-5-5-5-5-5--3-5--|
C| chord diagramC|C|--0--0-0-0-3/10\8--8-8-8-8--8-8-8-8--10--5--5-5-5-5-5--3--5--5-5-5-5-5-5--3-5--|

D|-------------------------------------------------------------------------------|
A|-------------------------------------------------------------------------------|
F| chord diagramF|F|-------------------------------------------------------------------------------|
C| chord diagramC|C|-------------------------------------------------------------------------------|
G|--0--0-0-0-3/10\8--8-8-8-8--8-8-8-8--10--5--5-5-5-5-5--3--5--5-5-5-5-5-5--3-5--|
C| chord diagramC|C|--0--0-0-0-3/10\8--8-8-8-8--8-8-8-8--10--5--5-5-5-5-5--3--5--5-5-5-5-5-5--3-5--|

D|-------------------------------------------------------------------------------|
A|-------------------------------------------------------------------------------|
F| chord diagramF|F|-------------------------------------------------------------------------------|
C| chord diagramC|C|-------------------------------------------------------------------------------|
G|--0--0-0-0-3/10\8--8-8-8-8--8-8-8-8--10--5--5-5-5-5-5--3--5--5-5-5-5-5-5--3-5--|
C| chord diagramC|C|--0--0-0-0-3/10\8--8-8-8-8--8-8-8-8--10--5--5-5-5-5-5--3--5--5-5-5-5-5-5--3-5--|

D|-------------------------------------------------------------|
A|-------------------------------------------------------------|
F| chord diagramF|F|-------------------------------------------------------------|
C| chord diagramC|C|-------------------------------------------------------------|
G|--0--0-0-0-3/10\8--8-8-8-8--8-8-8-8--10--5--5-5-5-5-5--3--5--|
C| chord diagramC|C|--0--0-0-0-3/10\8--8-8-8-8--8-8-8-8--10--5--5-5-5-5-5--3--5--|

Main Riff - Both guitars: (equal to the intro parts)

D|---------------------------|
A|---------------------------|
F| chord diagramF|F|---------------------------|
C| chord diagramC|C|---------------------------|
G|--------------8p5-----3h5--|
C| chord diagramC|C|--0-0-5p3-0-0-----0-0------|
PM  * *     * *     * *

D|--------------------------------------------------|----------------------------------------------------|
A|--------------------------------------------------|----------------------------------------------------|
F| chord diagramF|F|--------------------------------------------------|----------------------------------------------------|
C| chord diagramC|C|--0-----------------------------------------------|--0-------------------------------------------------|
G|--0--------------5--x-x--------------8p5-----3h5--|--0--------------5----x-x--------------8p5-----3h5--|
C| chord diagramC|C|--0--0-0-5p3-0-0----x-x--0-0-5p3-0-0-----0-0------|--0--0-0-5p3-0-0----0-x-x--0-0-5p3-0-0-----0-0------|
PM     * *     * *         * *     * *     * *            * *     * *           * *     * *     * *

D|--------------------------------------------------|----------------------------------------------------|
A|--------------------------------------------------|----------------------------------------------------|
F| chord diagramF|F|--------------------------------------------------|----------------------------------------------------|
C| chord diagramC|C|--0-----------------------------------------------|--0-------------------------------------------------|
G|--0--------------5--x-x--------------8p5-----3h5--|--0--------------5----x-x--------------8p5-----3h5--|
C| chord diagramC|C|--0--0-0-5p3-0-0----x-x--0-0-5p3-0-0-----0-0------|--0--0-0-5p3-0-0----0-x-x--0-0-5p3-0-0-----0-0------|
PM     * *     * *         * *     * *     * *            * *     * *           * *     * *     * *

[Verse 2 - lead clean/delay) equal to first verse and pre chorus

D|--------------------------|-----------------------------|
A|--------------------------|-----------------------------|
F| chord diagramF|F|---------------------14---|--------------9----------10--|
C| chord diagramC|C|--12--12-12--12-12-12-----|--10-10--10-10---10-10-10----|
G|--------------------------|-----------------------------|
C| chord diagramC|C|--------------------------|-----------------------------|
PM      *  *   *  *  *         *  *   *  *    *  *  *

D|--------------------------|-----------------------------|
A|--------------------------|-----------------------------|
F| chord diagramF|F|---------------------14---|--------------9-------10-----|
C| chord diagramC|C|--12--12-12--12-12-12-----|--10-10--10-10---10-10---12--|
G|--------------------------|-----------------------------|
C| chord diagramC|C|--------------------------|-----------------------------|
PM      *  *   *  *  *         *  *   *  *    *  *

D|--------------------------|-----------------------------|
A|--------------------------|-----------------------------|
F| chord diagramF|F|---------------------14---|--------------9----------10--|
C| chord diagramC|C|--12--12-12--12-12-12-----|--10-10--10-10---10-10-10----|
G|--------------------------|-----------------------------|
C| chord diagramC|C|--------------------------|-----------------------------|
PM      *  *   *  *  *         *  *   *  *    *  *  *

Rhythm guitar kicks in
D|--------------------------|-----------------------------|
A|--------------------------|-----------------------------|
F| chord diagramF|F|---------------------14---|--------------9-------10-----|
C| chord diagramC|C|--12--12-12--12-12-12-----|--10-10--10-10---10-10---12--|
G|--------------------------|-----------------------------|
C| chord diagramC|C|--------------------------|-----------------------------|
PM      *  *   *  *  *         *  *   *  *    *  *

Verse - Rythm:
D|--------------------------------|--------------------------------|
A|--------------------------------|--------------------------------|
F| chord diagramF|F|--------------------------------|--------------------------------|
C| chord diagramC|C|--0--0----0--0----0--0----0--0--|--0--0----0--0----0--0----0--0--|
G|--0--0----0--0----0--0----0--0--|--0--0----0--0----0--0----0--0--|
C| chord diagramC|C|--0--0----0--0----0--0----0--0--|--0--0----0--0----0--0----0--0--|

Pre chorus - both guitars:

D|-------------------------|-------------------------|-------------------------|-------------------------|
A|-------------------------|-------------------------|-------------------------|-------------------------|
F| chord diagramF|F|--14--14-14---14--14-14--|--14--14-14---14--14-14--|--14--14-14---14--14-14--|--14--14-14---14--14-14--|
C| chord diagramC|C|--x---x--x----x---x--x---|--12--12-12---12--12-12--|--x---x--x----x---x--x---|--12--12-12---12--12-12--|
G|--x---x--x----x---x--x---|--10--10-10---10--10-10--|--x---x--x----x---x--x---|--10--10-10---10--10-10--|
C| chord diagramC|C|--12--12-12---12--12-12--|--10--10-10---10--10-10--|--12--12-12---12--12-12--|--10--10-10---10--10-10--|

D|-------------------| Small lick before the chorus
A|-------------------|
F| chord diagramF|F|-------------------|
C| chord diagramC|C|-------------------|
G|------8p5-----3h5--|
C| chord diagramC|C|--0-0-----0-0------|
PM  * *     * *

Chorus 2 - both guitars: Listen to the song for the excact rhyhtm timing

D|-------------------------------------------------------------------------------|
A|-------------------------------------------------------------------------------|
F| chord diagramF|F|-------------------------------------------------------------------------------|
C| chord diagramC|C|-------------------------------------------------------------------------------|
G|--0--0-0-0-3/10\8--8-8-8-8--8-8-8-8--10--5--5-5-5-5-5--3--5--5-5-5-5-5-5--3-5--|
C| chord diagramC|C|--0--0-0-0-3/10\8--8-8-8-8--8-8-8-8--10--5--5-5-5-5-5--3--5--5-5-5-5-5-5--3-5--|

D|-------------------------------------------------------------------------------|
A|-------------------------------------------------------------------------------|
F| chord diagramF|F|-------------------------------------------------------------------------------|
C| chord diagramC|C|-------------------------------------------------------------------------------|
G|--0--0-0-0-3/10\8--8-8-8-8--8-8-8-8--10--5--5-5-5-5-5--3--5--5-5-5-5-5-5--3-5--|
C| chord diagramC|C|--0--0-0-0-3/10\8--8-8-8-8--8-8-8-8--10--5--5-5-5-5-5--3--5--5-5-5-5-5-5--3-5--|

D|-------------------------------------------------------------------------------|
A|-------------------------------------------------------------------------------|
F| chord diagramF|F|-------------------------------------------------------------------------------|
C| chord diagramC|C|-------------------------------------------------------------------------------|
G|--0--0-0-0-3/10\8--8-8-8-8--8-8-8-8--10--5--5-5-5-5-5--3--5--5-5-5-5-5-5--3-5--|
C| chord diagramC|C|--0--0-0-0-3/10\8--8-8-8-8--8-8-8-8--10--5--5-5-5-5-5--3--5--5-5-5-5-5-5--3-5--|

D|-------------------------------------------------------------|
A|-------------------------------------------------------------|
F| chord diagramF|F|-------------------------------------------------------------|
C| chord diagramC|C|-------------------------------------------------------------|
G|--0--0-0-0-3/10\8--8-8-8-8--8-8-8-8--10--5--5-5-5-5-5--3--5--|
C| chord diagramC|C|--0--0-0-0-3/10\8--8-8-8-8--8-8-8-8--10--5--5-5-5-5-5--3--5--|

[Pre bridge - both guitars}

D|-------------------| Small lick before the bridge/solo
A|-------------------|
F| chord diagramF|F|-------------------|
C| chord diagramC|C|-------------------|
G|------8p5-----3h5--|
C| chord diagramC|C|--0-0-----0-0------|
PM  * *     * *

During the bridge part below the solo is played. Havent completely figured the solo out yet, but I'll update
the tab as soon as I do!

Bridge 1 - both guitars:

D|--------------------------------------------------|----------------------------------------------------|
A|--------------------------------------------------|----------------------------------------------------|
F| chord diagramF|F|--------------------------------------------------|----------------------------------------------------|
C| chord diagramC|C|--0-----------------------------------------------|--0-------------------------------------------------|
G|--0--------------5--x-x--------------8p5-----3h5--|--0--------------5----x-x--------------8p5-----3h5--|
C| chord diagramC|C|--0--0-0-5p3-0-0----x-x--0-0-5p3-0-0-----0-0------|--0--0-0-5p3-0-0----0-x-x--0-0-5p3-0-0-----0-0------|
PM     * *     * *         * *     * *     * *            * *     * *           * *     * *     * *

D|--------------------------------------------------|----------------------------------------------------|
A|--------------------------------------------------|----------------------------------------------------|
F| chord diagramF|F|--------------------------------------------------|----------------------------------------------------|
C| chord diagramC|C|--0-----------------------------------------------|--0-------------------------------------------------|
G|--0--------------5--x-x--------------8p5-----3h5--|--0--------------5----x-x--------------8p5-----3h5--|
C| chord diagramC|C|--0--0-0-5p3-0-0----x-x--0-0-5p3-0-0-----0-0------|--0--0-0-5p3-0-0----0-x-x--0-0-5p3-0-0-----0-0------|
PM     * *     * *         * *     * *     * *            * *     * *           * *     * *     * *

D|--------------------------------------------------|----------------------------------------------------|
A|--------------------------------------------------|----------------------------------------------------|
F| chord diagramF|F|--------------------------------------------------|----------------------------------------------------|
C| chord diagramC|C|--0-----------------------------------------------|--0-------------------------------------------------|
G|--0--------------5--x-x--------------8p5-----3h5--|--0--------------5----x-x--------------8p5-----3h5--|
C| chord diagramC|C|--0--0-0-5p3-0-0----x-x--0-0-5p3-0-0-----0-0------|--0--0-0-5p3-0-0----0-x-x--0-0-5p3-0-0-----0-0------|
PM     * *     * *         * *     * *     * *            * *     * *           * *     * *     * *

Birdge 2 - rhythm: begins after 4 beats

D|-------------------------------------|Play this 3 times
A|-------------------------------------|
F| chord diagramF|F|-------------------------------------|
C| chord diagramC|C|--3--3-3---5--5-5----7--7-7--7--7-7--|
G|--1--1-1---3--3-3----5--5-5--5--5-5--|
C| chord diagramC|C|-------------------------------------|
PM  *  * *   *  * *    *  * *  *  * *

D|-------------------------------------|4th time
A|-------------------------------------|
F| chord diagramF|F|-------------------------------------|
C| chord diagramC|C|-------------------------------------|
C| chord diagramC|C|--3--3-3---5--5-5----7--7-7--7-------|
G|--1--1-1---3--3-3----5--5-5--5-------|
PM  *  * *   *  * *    *  * *


D|-------------------| Small lick before the chorus
A|-------------------|
F| chord diagramF|F|-------------------|
C| chord diagramC|C|-------------------|
G|------8p5-----3h5--|
C| chord diagramC|C|--0-0-----0-0------|
PM  * *     * *

Chorus 2 - both guitars: Listen to the song for the excact rhyhtm timing

D|-------------------------------------------------------------------------------|
A|-------------------------------------------------------------------------------|
F| chord diagramF|F|-------------------------------------------------------------------------------|
C| chord diagramC|C|-------------------------------------------------------------------------------|
G|--0--0-0-0-3/10\8--8-8-8-8--8-8-8-8--10--5--5-5-5-5-5--3--5--5-5-5-5-5-5--3-5--|
C| chord diagramC|C|--0--0-0-0-3/10\8--8-8-8-8--8-8-8-8--10--5--5-5-5-5-5--3--5--5-5-5-5-5-5--3-5--|

D|-------------------------------------------------------------------------------|
A|-------------------------------------------------------------------------------|
F| chord diagramF|F|-------------------------------------------------------------------------------|
C| chord diagramC|C|-------------------------------------------------------------------------------|
G|--0--0-0-0-3/10\8--8-8-8-8--8-8-8-8--10--5--5-5-5-5-5--3--5--5-5-5-5-5-5--3-5--|
C| chord diagramC|C|--0--0-0-0-3/10\8--8-8-8-8--8-8-8-8--10--5--5-5-5-5-5--3--5--5-5-5-5-5-5--3-5--|

D|-------------------------------------------------------------------------------|
A|-------------------------------------------------------------------------------|
F| chord diagramF|F|-------------------------------------------------------------------------------|
C| chord diagramC|C|-------------------------------------------------------------------------------|
G|--0--0-0-0-3/10\8--8-8-8-8--8-8-8-8--10--5--5-5-5-5-5--3--5--5-5-5-5-5-5--3-5--|
C| chord diagramC|C|--0--0-0-0-3/10\8--8-8-8-8--8-8-8-8--10--5--5-5-5-5-5--3--5--5-5-5-5-5-5--3-5--|

D|--------------------------------------------------------------------------------|
A|--------------------------------------------------------------------------------|
F| chord diagramF|F|--------------------------------------------------------------------------------|
C| chord diagramC|C|--------------------------------------------------------------------------------|
G|--0--0-0-0-3/10\8--8-8-8-8--8-8-8-8--10--5--5-5-5-5-5--3--5-555------------3h5--|
C| chord diagramC|C|--0--0-0-0-3/10\8--8-8-8-8--8-8-8-8--10--5--5-5-5-5-5--3--5-555-0-0-5p3-0-0-----|
PM                                                                * *     * *

Outro - both guitars:

D|----------------------------------------------------|----------------------------------------------------|
A|----------------------------------------------------|----------------------------------------------------|
F| chord diagramF|F|----------------------------------------------------|----------------------------------------------------|
C| chord diagramC|C|--0-------------------------------------------------|--0-------------------------------------------------|
G|--0--------------5----x-x--------------8p5-----3h5--|--0--------------5----x-x--------------8p5-----3h5--|
C| chord diagramC|C|--0--0-0-5p3-0-0----0-x-x--0-0-5p3-0-0-----0-0------|--0--0-0-5p3-0-0----0-x-x--0-0-5p3-0-0-----0-0------|
PM     * *     * *           * *     * *     * *            * *     * *           * *     * *     * *

D|--------------------|--------------------|-----------------------|------------------------------|
A|--------------------|--------------------|-----------------------|------------------------------|
F| chord diagramF|F|--------------------|--------------------|-----------------------|------------------------------|
C| chord diagramC|C|--0-----------------|--0-----------------|-----0-----------------|--0---------------------------|
G|--0--------------5--|--0--------------5--|-x-x-0--------------5--|--0--------------8p5-----3h5--|
C| chord diagramC|C|--0--0-0-5p3-0-0----|--0--0-0-5p3-0-0----|-x-x-0--0-0-5p3-0-0----|--0--0-0-5p3-0-0-----0-0------|
PM     * *     * *          * *     * *             * *     * *          * *     * *     * *

Enjoy !


************************************

| x   Dead note
| h   Hammer-on
| p   Pull-off
| /   Slide up
| \   Slide down
| PM  Palm mute

Comment this song and these guitar tabs

Do you have corrections, comments on the guitar tabs, thoughts about the song or a message to the author? Write them below.