Guitar Tabs Explorer
Nickelback bass tabs for Falls back on

Falls Back On bass tab


Be the first to rate

Jamplay guitar lessons

Falls Back On bass tab by Nickelback

Bass tabs

Print
Verse

G|-----------|------------|-----------|---------|
D|-----------|------------|-----------|---------|
A|0-100-10---|0-100-10-33-|0-100-10---|0-100-100|
D|--------55-|------------|--------55-|---------|


Chorus

G|------------------|----------------------|
D|------------------|-----------------(x4)-|
A|33333333-555550-0-|----------------------|
D|------------------|7--5h7--5h7-101010----|

G|------------------|
D|------------------|
A|33333333-55555555-|
D|------------------|

G|-----------|------------|-----------|---------|
D|-----------|------------|-----------|---------|
A|0-100-10---|0-100-10-33-|0-100-10---|0-100-100|
D|--------55-|------------|--------55-|---------|

G|------------------|
D|------------------|
A|33333333-55555555-|
D|------------------|

G|-----------|------------|
D|-----------|------------|
A|0-100-10---|0-100-10-33-|
D|--------55-|------------|

Verse

G|-----------|------------|-----------|---------|
D|-----------|------------|-----------|---------|
A|0-100-10---|0-100-10-33-|0-100-10---|0-100-100|
D|--------55-|------------|--------55-|---------|

Chorus

G|------------------|----------------------|
D|------------------|-----------------(x4)-|
A|33333333-555550-0-|----------------------|
D|------------------|7--5h7--5h7-101010----|

G|------------------|
D|------------------|
A|33333333-55555555-|
D|------------------|

G|-----------|------------|-----------|---------|
D|-----------|------------|-----------|---------|
A|0-100-10---|0-100-10-33-|0-100-10---|0-100-100|
D|--------55-|------------|--------55-|---------|

G|------------------|
D|------------------|
A|33333333-55555555-|
D|------------------|

G|-----------|------------|
D|-----------|------------|
A|0-100-10---|0-100-10-33-|
D|--------55-|------------|

Bridge

G|----------------|----------| (x2)
D|----------------|----------|
A|----------------|----------|
D|8888888888888888|7-877-877-|

G|----------------|----------------|
D|----------------|----------------|
A|----------------|----------------|
D|8888888888888888|3333333333333333|

G|-----------|------------|-----------|---------|
D|-----------|------------|-----------|---------|
A|0-100-10---|0-100-10-33-|0-100-10---|0-100-100|
D|--------55-|------------|--------55-|---------|

Verse

G|-----------|------------|-----------|---------|
D|-----------|------------|-----------|---------|
A|0-100-10---|0-100-10-33-|0-100-10---|0-100-100|
D|--------55-|------------|--------55-|---------|


Chorus

G|------------------|----------------------|
D|------------------|-----------------(x4)-|
A|33333333-555550-0-|----------------------|
D|------------------|7--5h7--5h7-101010----|

G|------------------|
D|------------------|
A|33333333-55555555-|
D|------------------|

G|-----------|------------|-----------|---------|
D|-----------|------------|-----------|---------|
A|0-100-10---|0-100-10-33-|0-100-10---|0-100-100|
D|--------55-|------------|--------55-|---------|

G|------------------|
D|------------------|
A|33333333-55555555-|
D|------------------|

G|-----------|------------|-----------|---------|
D|-----------|------------|-----------|---------|
A|0-100-10---|0-100-10-33-|0-100-10---|0-100-10-|
D|--------55-|------------|--------55-|--------5|

Comment this song and these bass tabs

Do you have corrections, comments on the bass tabs, thoughts about the song or a message to the author? Write them below.