Guitar Tabs Explorer
Nickelback guitar tabs for All the right reasons album

All The Right Reasons Album tab


Be the first to rate

All The Right Reasons Album tab by Nickelback

Guitar tabs with lyrics

Print
them here...)


 1. Follow You Home
 2. Fight For All The Wrong Reasons
 3. Photograph
 4. Animals
 5. Savin' Me
 6. Far Away
 7. Next Contestant
 8. Side of a Bullet
 9. If Everyone Cared
10. Someone That You're With
11.Rockstar


 1. Follow You Home – Nickelback

Drop C chord diagramCC

Into/verse (on verse palm mute)
d------------------------------------------------------|
a------------------------------------------------------|
f------------------------------------------------------|
c-7-5-7-5-7-10-7-5-7-0-12h10-10-7-5-7-3-10h12----------|
g-7-5-7-5-7-10-7-5-7-0-12h10-10-7-5-7-3-10h12----------|
C chord diagramCC-7-5-7 5-7-10-7-5-7-0-12h10-10-7-5-7-3-10h12----------| x2


solo after intro
d-----------------------------------------------------------------|
a-------------------------5s8s10s13s15s17-15h17p15---15h17p15-----|
f-2-5-2-0-2-5-2-0-2-5-2-5-------------------------14---------14b--|
c-----------------------------------------------------------------|
g-----------------------------------------------------------------|
C chord diagramCC-----------------------------------------------------------------|

pre chorus

d----------------------------------------------------------------------|
a----------------------------------------------------------------------|
f----------------------------------------------------------------------|
c-3-----5-3-5-0----5-0----7-5-7-0-12h10--------------------------------|
g-3-----5-3-5-0----5-0----7-5-7-0-12h10--------------------------------|
C chord diagramCC-3-x14-5-3-5-0-x5-5-0-x5-7-5-7-0-12h10--------------------------------|

d----------------------------------------|
a----------------------------------------|
f----------------------------------------|
c--7-5-7-3-10h12-3-x14-5-3-5-0-x5-5-0x5--|
g--7-5-7-3-10h12-3-x14-5-3-5-0-x5-5-0x5--|
C chord diagramCC--7-5-7-3-10h12-3-x14-5-3-5-0-x5-5-0x5--|


chorus

d----------------------------------------------------------|
a----------------------------------------------------------|
f----------------------------------------------------------|
c-7-0-3h5-3-0-3-0-3h5-5-5-5-5-7-0-12h10-10-7-5-7-3-10h12---|
g-7-0-3h5-3-0-3-0-3h5-5-5-5-5-7-0-12h10-10-7-5-7-3-10h12---|
C chord diagramCC-7-0-3h5-3-0-3-0-3h5-5-5-5-5-7-0-12h10-10-7-5-7-3-10h12—--|

picking part of chorus
d--------------------------------------------|
a-7-9-2-5-7-5-7-5-2--------------------------|
f--------------------------------------------|
c--------------------------------------------|
g--------------------------------------------|
C chord diagramCC--------------------------------------------| x4

2nd solo

d------------------------------|
a------------------------------|
f-12h14p12---------------------|
c---------14-------------------|
g------------------------------|
C chord diagramCC------------------------------| x4

d-------------------------------------------------------------|
a-------------------------------------------------------------|
f---12-14-14-14-12-14-17-14-12-14-12--------------------------|
c-14--------------------------------14-12-10-12-10h12h14-10-7-|
g-------------------------------------------------------------|
C chord diagramCC-------------------------------------------------------------|

verse

pre-chorus

chorus

3rd solo
d--------------------------------------------------|
a--------------------------------------------------|
f--------------------------------7h9-7h9-7h9-------|
c--7-7--------------7--------7------7---7----------|
g-0---0-3-0-3-0-3h5---5-3-5-0---0------------0-3-5-|
C chord diagramCC--------------------------------------------------|

d--------------------------------------------------------------|
a--------------------------------------------------------------|
f--5h7p5-7h9-7-9-7-9s12-12-9-7h9p7—5-7p5-----------------------|
c—7-------------------------------7-----7-5---5-7-7-5----------|
g------------------------------------------5h7-------7-5h7p5-0-|
C chord diagramCC--------------------------------------------------------------|

d----------------------------------------------------------------------|
a----------------------------------------------------------------------|
f-----------------7-9-7s14-14-14-14--------------7-5-------------------|
c-7-5-7-10-7-5-7-------------------7-5-7-10-7-5-7---7-7s10-7-7-*10-7-7-|
g-7-5-7-10-7-5-7-7-----------------7-5-7-10-7-5-7----------------------|
C chord diagramCC-7-5-7-10-7-5-7-------------------7-5-7-10-7-5-7----------------------|

d-----------------------------------------------------------------|
a-----------------------------------------------------------------|
f--------9-12-9-12-16b-5h7-5h7-5h7-5-5----------------------------|
c-10-7-7----------------------------7-7-7-------------------------|
g-----------------------------------------------------------------|
C chord diagramCC-----------------------------------------------------------------|

*guitar 2 plays this:
d----------------------------|
a----------------------------|
f----------------------------|
c-7-5-7-10-7-5-7-------------|
g-7-5-7-10-7-5-7-------------|
C chord diagramCC-7-5-7-10-7-5-7-------------|

verse

pre-chorus/chorus


 2. Fight All The Wrong Reasons


Tuning: Drop – C chord diagramCC (C chord diagramCC G chord diagramGG C chord diagramCC F chord diagramFF A chord diagramAA D chord diagramDD)


Intro - Play 2x
D|-------------------------------------------------------------|
A|-3--------6--------------------------------------------------|
F| chord diagramF|F|-2---x-x--5--------------------------------------------------|
C| chord diagramC|C|-0---x-x--3----------3-------5----10-------------------------|
G|-0---x-x--3--3-5-3-5---5-3---5----10--8-10-8-10brb-8---------|
C| chord diagramC|C|-0---x-x-—3------------------5----10-------------------------|


Verse:
(I'm not sure about this part)
B||--5-5-------8-8---------------5-5----------------------------|
B||------6---6-----5-6-5-6-5-6-8-----6---8-8-5-6-5--------------|
F|| chord diagramF||F||--------7---------------------------7-----------7-5-7--------|
C|| chord diagramC||C||-------------------------------------------------------------|
B||-------------------------------------------------------------|
C|| chord diagramC||C||-------------------------------------------------------------|


Then at the ending:
D|------------------------------------|
A|------------------------------------|
F| chord diagramF|F|------------------------------------|
C| chord diagramC|C|--------------3-5-3--5-7-5-3--------|
G|------------------------------------|
C| chord diagramC|C|------------------------------------|

Right before Chorus
D|-------------------|
A|3-3--3-3-----------|
F|2 chord diagramF|2F|2-2--2-2--5-5--5-5-|
C|0 chord diagramC|0C|0-0--0-0--5-5--5-5-|
G|0-0--0-0--3-3--3-3-|
C|0 chord diagramC|0C|0-0--0-0-----------|

Chorus
D|-------------------------------------------------------------| 4x
A|-3--------6--------------------------------------------------|
F| chord diagramF|F|-2---x-x--5--------------------------------------------------|
C| chord diagramC|C|-0---x-x--3----------3-------5----10-------------------------|
G|-0---x-x--3--3-5-3-5---5-3---5----10--8-10-8-10brb-8---------|
C| chord diagramC|C|-0---x-x-—3------------------5----10-------------------------|


Bridge

D|----------------------| 4x
A|--3-3--3-3------------|
F| chord diagramF|F|--2-2--2-2--5-5--5-5--|
C| chord diagramC|C|--0-0--0-0--5-5--5-5--|
G|--0-0--0-0--3-3--3-3--|
C| chord diagramC|C|--0-0--0-0------------|


D|---------------------------------------------------------|
A|----------3-3--3-3------------3-3--3-3-------------------|
F| chord diagramF|F|----------2-2--2-2--5-5--5-5--2-2--2-2--5-5--5-5---------|
C| chord diagramC|C|----------0-0--0-0--5-5--5-5--0-0--0-0--5-5--5-5---------|
G|----------0-0--0-0--3-3--3-3--0-0--0-0--3-3--3-3---------|
C| chord diagramC|C|-0-0-2-3--0-0--0-0------------0-0--0-0-----------0-0-2-3-|

(this part played 3x)
D|----------------------------------------------------------------------|
A|----------------------------------------------------------------------|
F| chord diagramF|F|----------------------------------------------------------------------|
C| chord diagramC|C|----------------------------------------------------------------------|
G|--------------8-10-----3-5-----10-8-----7-8-----8-10-----3-5-----10-8-|
C| chord diagramC|C|-0-0-2-3--0-0------0-0-----0-0------0-0-----0-0------0-0-----0-0------|

D|-------------------------------------------------|
A|----------3-3--3-3------------3-3--3-3-----------|
F| chord diagramF|F|----------2-2--2-2--5-5--5-5--2-2--2-2--5-5--5-5-|
C| chord diagramC|C|----------0-0--0-0--5-5--5-5--0-0--0-0--5-5--5-5-|
G|----------0-0--0-0--3-3--3-3--0-0--0-0--3-3--3-3-|
C| chord diagramC|C|----------0-0--0-0------------0-0--0-0-----------|
 3. Photograph

Verse and Pre-chorus
E|-0----0----0-0-----0-----0-0-0--0-|-0----0----0-0-----0-----0-0-0--0-|
B|-0----0----0-0-----0-----0-0-0--0-|-0----0----0-0-----0-----0-0-0--0-|
G|-9----9----9-9-----9-----9-9-9--8-|-8----8----8-8-----8-----8-8-8--0-|
D|-9----9----9-9-----9-----9-9-9--9-|-9----9----9-9-----9-----9-9-9--0-|
A|-7----7----7-7-----7-----7-7-7--9-|-9----9----9-9-----9-----9-9-9--0-|
E|-0----0----0-0-----0-----0-0-0--7-|-7----7----7-7-----7-----7-7-7----|

E|-0----0---0--0-----0----0--0--0--0--0-------- |
B|-0----0---0--0-----0----0--0--0--0--0-------- |
G|-11---11--11-11----11---11-11-11-11-6-------- |    _
D|-12---12--12-12----12---12-12-12-12-7-|    -- |
A|-12---12--12-12----12---12-12-12-12-7-|    -- |
E|-10---10--10-10----10---10-10-10-10-5-|    -- |
                                              |    X4
E|-0----0---0--0-----0----0--0--0--0--0-|    -- |
B|-0----0---0--0-----0----0--0--0--0--0-|    -- |
G|-6----6---6--6-----6----6--6--6--9--9-|    -- |
D|-7----7---7--7-----7----7--7--7--9--9-|    -- |
A|-7----7---7--7-----7----7--7--7--7--7-------- |
E|-5----5---5--5-----5----5--5--5--0--0-------- |

E|-0----0-------0--------0----0--0--0-----0-|
B|-0----0-------0--------0----0--0--0-----0-|
G|-4----4-------4--------4----4--4--4-----4-|
D|-5----5-------5--------5----5--5--5-----5-|
A|-5----5-------5--------5----5--5--5-----5-|
E|-3----3-------3--------3----3--3--3-----3-|

E|-0-----0------0--0------0----0--0--0--0--0-|
B|-0-----0------0--0------0----0--0--0--0--0-|
G|-6-----6------6--6------6----6--6--6--9--9-|
D|-7-----7------7--7------7----7--7--7--9--9-|
A|-7-----7------7--7------7----7--7--7--7--7-|
E|-5-----5------5--5------5----5--5--5--0--0-|

Chorus

E|-0----0------0---0-|-0----0-----0---0--|
B|-0----0------0---0-|-0----0-----0---0--|
G|-9----9------9---8-|-8----8-----8---11-|
D|-9----9------9---9-|-9----9-----9---12-|
A|-7----7------7---9-|-9----9-----9---12-|
E|-0----0------0---7-|-7----7-----7---10-|

E|-0----0--------0----0--0-|-0-----0------------0-|
B|-0----0--------0----0--0-|-0-----0------------0-|
G|-11---11-------11---6--6-|-6-----6------------9-|
D|-12---12-------12---7--7-|-7-----7------7-9-9-9-|
A|-12---12-------12---7--7-|-7-----7------7-9-9-7-|
E|-10---10-------10---5--5-|-5-----5------5-7-7-0-|

Bridge

E|-------------------|---------------|----------------------|----------------|
B|----------9-----12-|---------9-----|-12-10----9-12-10---9-|-10-8-------7-9-|
G|--------9-----9----|-------9-----9-|-12-11----9-13-11---9-|-11-9--9--9-----|
D|-------------------|---------------|----------------------|-------9--------|
A|-------------------|---------------|----------------------|----------------|
E|-------------------|---------------|----------------------|----------------|

Middle Bit

E|-0----0--------0----0---------0-----0---0---0---0---0--|
B|-0----0--------0----0---------0-----0---0---0---0---0--|
G|-9----9--------9----9---------9-----9---9---9---9---9--|
D|-10---10-------10---10--------10----10--10--10--10--10-|
A|-10---10-------10---10--------10----10--10--10--10--10-|
E|-8----8--------8----8---------8-----8---8---8---8---8--|

E|-0----0--------0----0---------0-----0---0---0---0---0--|
B|-0----0--------0----0---------0-----0---0---0---0---0--|
G|-11---11-------11---11--------11----11--11--11--11--11-|
D|-12---12-------12---12--------12----12--12--12--12--12-|
A|-12---12-------12---12--------12----12--12--12--12--12-|
E|-10---10-------10---10--------10----10--10--10--10--10-|

E|-0---0---------0----0-|-0---0--------0----0-----0-|
B|-0---0---------0----0-|-0---0--------0----0-----0-|
G|-9---9---------9----8-|-8---8--------8----8-----4-|
D|-9---9---------9----9-|-9---9--------9----9-----5-|
A|-7---7---------7----9-|-9---9--------9----9-----5-|
E|-0---0---------0----7-|-7---7--------7----7-----3-|

E|-0---0--------0---0---0-|-0---0---------0---0---0-|
B|-0---0--------0---0---0-|-0---0---------0---0---0-|
G|-4---4--------4---4---6-|-6---6---------6---9---9-|
D|-5---5--------5---5---7-|-7---7---------7---9---9-|
A|-5---5--------5---5---7-|-7---7---------7---7---7-|
E|-3---3--------3---3---5-|-5---5---------5---0---0-|

E|-------------0--------|------0--------|--0------------|
B|----------------7-----|---------7-----|--0------------|
G|-----------9--9-------|-----9-9-------|--11-----------|
D|---------9-----9------|-9--9---9------|--12-----------|
A|-------7--------------|-9-------------|--12-----------|
E|----------------------|-7-------------|--10-----------|


 4. Animals

(intro)
HEAVY DISTORTION
e|------------------------|
B|------------------------|
G|-7--------5r------------|
D|-7-0r--3r-5r-5-5-5r-----|
A|-5-0r--3r-3r-5-5-5r-----|
D|---0r--3r----5-5-5r-----|

(pre-verse)
e|-------------------------------------------------------|
B|-------------------------------------------------------|
G|-7-7r-----5r---------3-3/5-5/7-7-------5r--------------|
D|-7-7r--3r-5r-5-5-5r--3-3/5-5/7-7-0--3r-5r-5-5-5r-------|
A|-5-5r--3r-3r-5-5-5r--1-1/3-3/5-5-0--3r-3r-5-5-5r-------|
D|-------3r----5-5-5r--------------0--3r----5-5-5r-------|

(verse) – “I’m driving past your house…”
e|-------------------------------------------------------------------|
B|-------------------------------------------------------------------|
G|------------------------------------------------5-5r--5-5-5r--5----|
D|--0r--0-0-0r--0-0-0r--0-0-0r--0-5-5r--5-5-5r--5-5-5r--5-5-5r--5----|
A|--0r--0-0-0r--0-0-0r--0-0-0r--0-5-5r--5-5-5r--5-3-3r--3-3-3r--3----|
D|--0r--0-0-0r--0-0-0r--0-0-0r--0-5-5r--5-5-5r--5--------------------|

(chorus) – “Screaming no!”
e|-----------------------------------|
B|-----------------------------------|
G|-7--------5r---------3-3/5-5/7-7---|
D|-7-0r--3r-5r-5-5-5r--3-3/5-5/7-7---|
A|-5-0r--3r-3r-5-5-5r--1-1/3-3/5-5---|
D|---0r--3r----5-5-5r----------------|

(post-chorus) – “So come on baby, get in…”
e|-----------------------------|
B|-----------------------------|
G|---x--7--------5r------------|
D|---x--7-0r--3r-5r-5-5-5r-----|
A|---x--5-0r--3r-3r-5-5-5r-----|
D|---x----0r--3r----5-5-5r-----|

(outro)
e|--------------------------------------------------------------------|
B|--------------------------------------------------------------------|
G|--------------------------------------------------------------------|
D|-----------------------------------0r-------------------------------|
A|-----------------------------------0r-------------------------------|
D|--10h12p0-10h12p0-10h12p0-10h12p0--0r-------------------------------|

Song structure:

(intro) x 4
(pre-verse) x 2
(verse) x 2
(chorus) x 4
(post-chorus) x 4
(verse) x 2
(chorus) x 4
(post-chorus) x 4
(verse) x 2
(chorus) x 8
(outro) x 1


 5. Savin' Me

Intro/Verse (acoustic) "Prison gates won't open up for me"
D|--------------------------------------------------------------------------|
A|--------------------------------------------------------------------------|
F| chord diagramF|F|-----0---------0-------0---------0-------0---------0-------0---------0----|
C| chord diagramC|C|---7---------7---7---7---7-----3---0---7---------7---7---7---7-----7---0--|
G|--------------------------------------------------------------------------|
C| chord diagramC|C|-8-----0-3-3-------5-------0-0-------8-----0-3-3-------5-------5-5--------|

Pre-Chorus "Come please I'm calling"
D|-------------------------------|
A|-------------------------------|
F| chord diagramF|F|--------0------------0---------|
C| chord diagramC|C|-----7------------7-----7------|
G|-------------------------------|
C| chord diagramC|C|--8--------0-3-3---------------|

Chorus "Show me what it's like to be the last one standing"
D|--5--5--5--5------------------3--3--3--3------------------|
A|--5--5--5--5----6--6--6--6----3--3--3--3----8--8--8--8----|
F| chord diagramF|F|--7--7--7--7----5--5--5--5----5--5--5--5----7--7--7--7----|
C| chord diagramC|C|--7--7--7--7----3--3--3--3----5--5--5--5----5--5--5--5----|
G|--5--5--5--5----3--3--3--3----3--3--3--3----5--5--5--5----|
C| chord diagramC|C|----------------3--3--3--3------------------5--5--5--5----|

Chorus (dist.) "Say it for me, say it to me"
D|-------------------------------------------------------|
A|-------------------------------------------------------|
F| chord diagramF|F|-10-10-10-10----5--5--5--5----7--7--7--7----7----10----|
C| chord diagramC|C|--8--8--8--8----3--3--3--3----5--5--5--5----7----10----|
G|--8--8--8--8----3--3--3--3----5--5--5--5----5-----8----|
C| chord diagramC|C|--8--8--8--8----3--3--3--3----5--5--5--5----0----------|


D|--------------------------------------|
A|--------------------------------------|
F| chord diagramF|F|-10-10-10-10-----5--5--5--5-----7-----|
C| chord diagramC|C|--8--8--8--8-----3--3--3--3-----5-----|
G|--8--8--8--8-----3--3--3--3-----5-----|
C| chord diagramC|C|--8--8--8--8-----3--3--3--3-----5-----|

Solo
D|-------------------------------------------------------------------|
A|-------------------------------------------------------------------|
F| chord diagramF|F|-------------------------------------------------------------------|
C| chord diagramC|C|--/8p7----------/8p7----------/8p7-------------/7-5-/5-3-5---------|
G|--------10-8-10-------10-8-10-------10-8-10-5-8--------------------|
C| chord diagramC|C|-------------------------------------------------------------------|

D|-------------------------------------------------------------------|
A|-------------------------------------------------------------------|
F| chord diagramF|F|-------------------------------------------------------------------|
C| chord diagramC|C|--/8p7-------------/7-5-7-7-7-7/8-8-8-8/10-10-10-10/12-12-12-------|
G|-------10-8-10-5-8-------------------------------------------------|
C| chord diagramC|C|-------------------------------------------------------------------|

D|-------------------------------------------------------------------|
A|--/11p10-----------/11p10------------/11p10------------------------|
F| chord diagramF|F|----------12-10-12----------12-10-12---------12-10-12-7-10---------|
C| chord diagramC|C|-------------------------------------------------------------------|
G|-------------------------------------------------------------------|
C| chord diagramC|C|-------------------------------------------------------------------|

D|---------------------------------------------------15--------------|
A|--/10-8-/8-6-8/10-10-10-10/11-11-11-13h15p13-13--------------------|
F| chord diagramF|F|------------------------------------------------15-----------------|
C| chord diagramC|C|-------------------------------------------------------------------|
G|-------------------------------------------------------------------|
C| chord diagramC|C|-------------------------------------------------------------------|

Bridge
D|------------------------------------------------|
A|------------------------------------------------|
F| chord diagramF|F|--2-2-2-2---5-5-5-5---12-12-12-12---7-7-7-7-----|
C| chord diagramC|C|--0-0-0-0---3-3-3-3---10-10-10-10---5-5-5-5-----|
G|--0-0-0-0---3-3-3-3---10-10-10-10---5-5-5-5-----|
C| chord diagramC|C|--0-0-0-0---3-3-3-3---10-10-10-10---5-5-5-5-----|

End with the chorus again.


 6. Far Away

   INTRO
E||--------------------------|--------------------------|
B||--------0--------0-----0--|--------0--------0-----0--|
B||--------------3-----3-----|--------------3-----3-----|
B||-----4-----4--------------|-----4-----4--------------|
B||--2-----------------------|--------------------------|
E||--------------------------|--2-----------------------|

--------------------------|--------------------------|
--------0--------0-----0--|--------0-----2-----------|
--------------3-----3-----|-----------------4-----4--|
-----4-----4--------------|-----4-----4--------4-----|
--------------------------|--------------------------|
--4-----------------------|--0-----------------------|

VERSE 1
              This time                This place
--------------------------|--------------------------|
--------0--------0-----0--|--------0--------0-----0--|
--------------3-----3-----|--------------3-----3-----|
-----4-----4--------------|-----4-----4--------------|
--2-----------------------|--------------------------|
--------------------------|--2-----------------------|


              Misused                   Mistakes
--------------------------|--------------------------|
--------0--------0-----0--|--------0-----2-----------|
--------------3-----3-----|-----------------4-----4--|
-----4-----4--------------|-----4-----4--------4-----|
--------------------------|--------------------------|
--4-----------------------|--0-----------------------|


             Too long                 Too late
--------------------------|--------------------------|
--------0--------0-----0--|--------0--------0-----0--|
--------------3-----3-----|--------------3-----3-----|
-----4-----4--------------|-----4-----4--------------|
--2-----------------------|--------------------------|
--------------------------|--2-----------------------|


            Who was I          to make you wait
--------------------------|--------------------------|
--------0--------0-----0--|--------0-----2-----------|
--------------3-----3-----|-----------------4-----4--|
-----4-----4--------------|-----4-----4--------4-----|
--------------------------|--------------------------|
--4-----------------------|--0-----------------------|

           Just one chance           Just one breath
--------------------------|--------------------------|
--------0--------0-----0--|--------0--------0-----0--|
--------------3-----3-----|--------------3-----3-----|
-----4-----4--------------|-----4-----4--------------|
--2-----------------------|--------------------------|
--------------------------|--2-----------------------|

           Just in case        there’s just one left
--------------------------|--------------------------|
--------0--------0-----0--|--------0-----2-----------|
--------------3-----3-----|-----------------4-----4--|
-----4-----4--------------|-----4-----4--------4-----|
--------------------------|--------------------------|
--4-----------------------|--0-----------------------|


         ‘Cause you know,           you know
--------------------------|--------------------------|
--------------4-----------|--------------4-----------|
--------6--------6-----6--|--------6--------6-----6--|
-----6-----6--------6-----|-----6-----6--------6-----|
--4-----------------------|--4-----------------------|
--------------------------|--------------------------|

                 you knowwwwwwwwwwww       CHORUS              That I
--------------------------|--0------------|       |-----------------------|
--------------7-----------|--0------------|       |--4----4----4----4--4--|
--------9--------9-----9--|--1------------|       |--4----4----4----4--4--|
-----9-----9--------9-----|--2------------|       |--4----4----4----4--4--|
--7-----------------------|--2------------|       |--2----2----2----2--2--|
--------------------------|--0------------|       |-----------------------|

love you                  I have        loved you all along
--2----2----2----2--2--|--4----4----4----4--4--|--0----0----0----0--0--|
--2----2----2----2--2--|--4----4----4----4--4--|--0----0----0----0--0--|
--3----3----3----3--3--|--4----4----4----4--4--|--1----1----1----1--1--|
--4----4----4----4--4--|--6----6----6----6--6--|--2----2----2----2--2--|
--4----4----4----4--4--|--6----6----6----6--6--|--2----2----2----2--2--|
--2----2----2----2--2--|--4----4----4----4--4--|--0----0----0----0--0--|

           And I         miss you                            Been far
-----------------------|--2----2----2----2--2--|--4----4----4----4--4--|
--4----4----4----4--4--|--2----2----2----2--2--|--4----4----4----4--4--|
--4----4----4----4--4--|--3----3----3----3--3--|--4----4----4----4--4--|
--4----4----4----4--4--|--4----4----4----4--4--|--6----6----6----6--6--|
--2----2----2----2--2--|--4----4----4----4--4--|--6----6----6----6--6--|
-----------------------|--2----2----2----2--2--|--4----4----4----4--4--|


 away for far too long                I keep     dreami......ng
--0----0----0----0--0--|-----------------------|--2----2----2----2--2--|
--0----0----0----0--0--|--4----4----4----4--4--|--2----2----2----2--2--|
--1----1----1----1--1--|--4----4----4----4--4--|--3----3----3----3--3--|
--2----2----2----2--2--|--4----4----4----4--4--|--4----4----4----4--4--|
--2----2----2----2--2--|--2----2----2----2--2--|--4----4----4----4--4--|
--0----0----0----0--0--|-----------------------|--2----2----2----2--2--|

     you’ll be      with me   and you’ll never go            Stop brea
--4----4----4----4--4--|--0----0----0----0--0--|-----------------------|
--4----4----4----4--4--|--0----0----0----0--0--|--4----4----4----4--4--|
--4----4----4----4--4--|--1----1----1----1--1--|--4----4----4----4--4--|
--6----6----6----6--6--|--2----2----2----2--2--|--4----4----4----4--4--|
--6----6----6----6--6--|--2----2----2----2--2--|--2----2----2----2--2--|
--4----4----4----4--4--|--0----0----0----0--0--|-----------------------|


 thi...........ng            if  I don’t         see you anymore
--2----2----2----2--2--|--4----4----4----4--4--|--0----------------|
--2----2----2----2--2--|--4----4----4----4--4--|--0----------------|
--3----3----3----3--3--|--4----4----4----4--4--|--1----------------|
--4----4----4----4--4--|--6----6----6----6--6--|--2----------------|
--4----4----4----4--4--|--6----6----6----6--6--|--2----------------|
--2----2----2----2--2--|--4----4----4----4--4--|--0----------------|


ACOUSTIC GUITAR 2 (PLAYED DURING THE CHORUS)

|--11----------11----------11------|
|------12----------12----------12--|
|----------11----------11----------|
|----------------------------------|
|----------------------------------|
|----------------------------------|


--9----------9----------9------|--9----------9----------9------|
-----12---------12---------12--|-----12---------12---------12--|
---------11---------11---------|---------11---------11---------|
-------------------------------|-------------------------------|
-------------------------------|-------------------------------|
-------------------------------|-------------------------------|

--9----------9----------9------|--11----------11----------11------|
-----12---------12---------12--|------12----------12----------12--|
---------11---------11---------|----------11----------11----------|
-------------------------------|----------------------------------|
-------------------------------|----------------------------------|
-------------------------------|----------------------------------|

--9----------9----------9------|--9----------9----------9------|
-----12---------12---------12--|-----12---------12---------12--|
---------11---------11---------|---------11---------11---------|
-------------------------------|-------------------------------|
-------------------------------|-------------------------------|
-------------------------------|-------------------------------|

--9----------9----------9------|--11----------11----------11------|
-----12---------12---------12--|------12----------12----------12--|
---------11---------11---------|----------11----------11----------|
-------------------------------|----------------------------------|
-------------------------------|----------------------------------|
-------------------------------|----------------------------------|


--9----------9----------9------|--9----------9----------9------|
-----12---------12---------12--|-----12---------12---------12--|
---------11---------11---------|---------11---------11---------|
-------------------------------|-------------------------------|
-------------------------------|-------------------------------|
-------------------------------|-------------------------------|

--9----------9----------9------|--11----------11----------11------|
-----12---------12---------12--|------12----------12----------12--|
---------11---------11---------|----------11----------11----------|
-------------------------------|----------------------------------|
-------------------------------|----------------------------------|
-------------------------------|----------------------------------|

--9----------9----------9------|--9----------9----------9------|
-----12---------12---------12--|-----12---------12---------12--|
---------11---------11---------|---------11---------11---------|
-------------------------------|-------------------------------|
-------------------------------|-------------------------------|
-------------------------------|-------------------------------|


  Riff before verse 2 (ACOUSTIC GUITAR 1)
|--------------------------|--------------------------|
|--------0--------0-----0--|--------0--------0-----0--|
|--------------3-----3-----|--------------3-----3-----|
|-----4-----4--------------|-----4-----4--------------|
|--2-----------------------|--------------------------|
|--------------------------|--2-----------------------|

--------------------------|--------------------------|
--------0--------0-----0--|--------0-----2-----------|
--------------3-----3-----|-----------------4-----4--|
-----4-----4--------------|-----4-----4--------4-----|
--------------------------|--------------------------|
--4-----------------------|--0-----------------------|


 VERSE 2

             On my knees                I’ll ask
--------------------------|--------------------------|
--------0--------0-----0--|--------0--------0-----0--|
--------------3-----3-----|--------------3-----3-----|
-----4-----4--------------|-----4-----4--------------|
--2-----------------------|--------------------------|
--------------------------|--2-----------------------|


             Last chance       for one last dance
--------------------------|--------------------------|
--------0--------0-----0--|--------0-----2-----------|
--------------3-----3-----|-----------------4-----4--|
-----4-----4--------------|-----4-----4--------4-----|
--------------------------|--------------------------|
--4-----------------------|--0-----------------------|


              Cause with you            I’d withstand
--------------------------|--------------------------|
--------0--------0-----0--|--------0--------0-----0--|
--------------3-----3-----|--------------3-----3-----|
-----4-----4--------------|-----4-----4--------------|
--2-----------------------|--------------------------|
--------------------------|--2-----------------------|


            All of hell       to hold your hand
--------------------------|--------------------------|
--------0--------0-----0--|--------0-----2-----------|
--------------3-----3-----|-----------------4-----4--|
-----4-----4--------------|-----4-----4--------4-----|
--------------------------|--------------------------|
--4-----------------------|--0-----------------------|


              I’d give it all          I’d give for us
--------------------------|--------------------------|
--------0--------0-----0--|--------0--------0-----0--|
--------------3-----3-----|--------------3-----3-----|
-----4-----4--------------|-----4-----4--------------|
--2-----------------------|--------------------------|
--------------------------|--2-----------------------|


            Give anything     but I won’t give up
--------------------------|--------------------------|
--------0--------0-----0--|--------0-----2-----------|
--------------3-----3-----|-----------------4-----4--|
-----4-----4--------------|-----4-----4--------4-----|
--------------------------|--------------------------|
--4-----------------------|--0-----------------------|

            ‘Cause you know,           you know
--------------------------|--------------------------|
--------------4-----------|--------------4-----------|
--------6--------6-----6--|--------6--------6-----6--|
-----6-----6--------6-----|-----6-----6--------6-----|
--4-----------------------|--4-----------------------|
--------------------------|--------------------------|

                 you knowwwwwwwwwwww       CHORUS              That I
--------------------------|--0------------|       |-----------------------|
--------------7-----------|--0------------|       |--4----4----4----4--4--|
--------9--------9-----9--|--1------------|       |--4----4----4----4--4--|
-----9-----9--------9-----|--2------------|       |--4----4----4----4--4--|
--7-----------------------|--2------------|       |--2----2----2----2--2--|
--------------------------|--0------------|       |-----------------------|

love you                  I have        loved you all along
--2----2----2----2--2--|--4----4----4----4--4--|--0----0----0----0--0--|
--2----2----2----2--2--|--4----4----4----4--4--|--0----0----0----0--0--|
--3----3----3----3--3--|--4----4----4----4--4--|--1----1----1----1--1--|
--4----4----4----4--4--|--6----6----6----6--6--|--2----2----2----2--2--|
--4----4----4----4--4--|--6----6----6----6--6--|--2----2----2----2--2--|
--2----2----2----2--2--|--4----4----4----4--4--|--0----0----0----0--0--|

           And I         miss you                            Been far
-----------------------|--2----2----2----2--2--|--4----4----4----4--4--|
--4----4----4----4--4--|--2----2----2----2--2--|--4----4----4----4--4--|
--4----4----4----4--4--|--3----3----3----3--3--|--4----4----4----4--4--|
--4----4----4----4--4--|--4----4----4----4--4--|--6----6----6----6--6--|
--2----2----2----2--2--|--4----4----4----4--4--|--6----6----6----6--6--|
-----------------------|--2----2----2----2--2--|--4----4----4----4--4--|


 away for far too long                I keep     dreami......ng
--0----0----0----0--0--|-----------------------|--2----2----2----2--2--|
--0----0----0----0--0--|--4----4----4----4--4--|--2----2----2----2--2--|
--1----1----1----1--1--|--4----4----4----4--4--|--3----3----3----3--3--|
--2----2----2----2--2--|--4----4----4----4--4--|--4----4----4----4--4--|
--2----2----2----2--2--|--2----2----2----2--2--|--4----4----4----4--4--|
--0----0----0----0--0--|-----------------------|--2----2----2----2--2--|

     you’ll be      with me   and you’ll never go            Stop brea
--4----4----4----4--4--|--0----0----0----0--0--|-----------------------|
--4----4----4----4--4--|--0----0----0----0--0--|--4----4----4----4--4--|
--4----4----4----4--4--|--1----1----1----1--1--|--4----4----4----4--4--|
--6----6----6----6--6--|--2----2----2----2--2--|--4----4----4----4--4--|
--6----6----6----6--6--|--2----2----2----2--2--|--2----2----2----2--2--|
--4----4----4----4--4--|--0----0----0----0--0--|-----------------------|


 thi...........ng            if  I don’t         see you anymore
--2----2----2----2--2--|--4----4----4----4--4--|--0----------------|
--2----2----2----2--2--|--4----4----4----4--4--|--0----------------|
--3----3----3----3--3--|--4----4----4----4--4--|--1----------------|
--4----4----4----4--4--|--6----6----6----6--6--|--2----------------|
--4----4----4----4--4--|--6----6----6----6--6--|--2----------------|
--2----2----2----2--2--|--4----4----4----4--4--|--0----------------|

////////////////////////ACOUSTIC GUITAR GOES ON IN THIS CHORUS LIKE VERSE 1////////////////


BRIDGE

               So far away             So far away
|--------------------------|--------------------------|
|--------0--------0-----0--|--------0--------0-----0--|
|--------------3-----3-----|--------------3-----3-----|
|-----4-----4--------------|-----4-----4--------------|
|--2-----------------------|--------------------------|
|--------------------------|--2-----------------------|


             Been far away      for far too long
--------------------------|--------------------------|
--------0--------0-----0--|--------0-----2-----------|
--------------3-----3-----|-----------------4-----4--|
-----4-----4--------------|-----4-----4--------4-----|
--------------------------|--------------------------|
--4-----------------------|--0-----------------------|


              So far away             So far away
--------------------------|--------------------------|
--------0--------0-----0--|--------0--------0-----0--|
--------------3-----3-----|--------------3-----3-----|
-----4-----4--------------|-----4-----4--------------|
--2-----------------------|--------------------------|
--------------------------|--2-----------------------|


              Been far away      for far too long
--------------------------|--------------------------|
--------0--------0-----0--|--------0-----2-----------|
--------------3-----3-----|-----------------4-----4--|
-----4-----4--------------|-----4-----4--------4-----|
--------------------------|--------------------------|
--4-----------------------|--0-----------------------|

 ‘Cause you know,           you know
--------------------------|--------------------------|
--------------4-----------|--------------4-----------|
--------6--------6-----6--|--------6--------6-----6--|
-----6-----6--------6-----|-----6-----6--------6-----|
--4-----------------------|--4-----------------------|
--------------------------|--------------------------|

                 you knowwwwwwwwwwww        CHORUS                  I
--------------------------|--0------------|       |-----------------------|
--------------7-----------|--0------------|       |--4----4----4----4--4--|
--------9--------9-----9--|--1------------|       |--4----4----4----4--4--|
-----9-----9--------9-----|--2------------|       |--4----4----4----4--4--|
--7-----------------------|--2------------|       |--2----2----2----2--2--|
--------------------------|--0------------|       |-----------------------|

 wanted                              I         wanted  you to stay
--2----2----2----2--2--|--4----4----4----4--4--|--0----0----0----0--0--|
--2----2----2----2--2--|--4----4----4----4--4--|--0----0----0----0--0--|
--3----3----3----3--3--|--4----4----4----4--4--|--1----1----1----1--1--|
--4----4----4----4--4--|--6----6----6----6--6--|--2----2----2----2--2--|
--4----4----4----4--4--|--6----6----6----6--6--|--2----2----2----2--2--|
--2----2----2----2--2--|--4----4----4----4--4--|--0----0----0----0--0--|

            Cause I        needed                 I need to hear you say
-----------------------|--2----2----2----2--2--|--4----------------|
--4----4----4----4--4--|--2----2----2----2--2--|--4----------------|
--4----4----4----4--4--|--3----3----3----3--3--|--4----------------|
--4----4----4----4--4--|--4----4----4----4--4--|--6----------------|
--2----2----2----2--2--|--4----4----4----4--4--|--6----------------|
-----------------------|--2----2----2----2--2--|--4----------------|

ACOUSTIC GUITAR GOES ON IN THIS CHORUS LIKE  THE FIRST CHORUS

CHORUS ( ONE TONE UP)

|------------------------|--4----4----4----4--4--|
|---6----6----6----6--6--|--4----4----4----4--4--|
|*--6----6----6----6--6--|--5----5----5----5--5--|
|*--6----6----6----6--6--|--6----6----6----6--6--|
|---4----4----4----4--4--|--6----6----6----6--6--|
|------------------------|--4----4----4----4--4--|


                                                8x
--6----6----6----6--6--|--2----2----2----2--2---||-------------------|
--6----6----6----6--6--|--2----2----2----2--2---||--6----------------|
--6----6----6----6--6--|--3----3----3----3--3--*||--6----------------|
--8----8----8----8--8--|--4----4----4----4--4--*||--6----------------|
--8----8----8----8--8--|--4----4----4----4--4---||--4----------------|
--6----6----6----6--6--|--2----2----2----2--2---||-------------------|


ACOUSTIC GUITAR 2 (PLAYED DURING THE CHORUS)
THIS ALSO GOES ONE TONE UP

|---13----------13----------13------|--11----------11----------11------|
|-------14----------14----------14--|------14----------14----------14--|
|-----------13----------13----------|----------13----------13----------|
|-----------------------------------|----------------------------------|
|-----------------------------------|----------------------------------|
|-----------------------------------|----------------------------------|


                                                                       8x
--11----------11----------11------|--11----------11----------11-------||
------14----------14----------14--|------14----------14----------14---||
----------13----------13----------|----------13----------13-----------||
----------------------------------|-----------------------------------||
----------------------------------|-----------------------------------||
----------------------------------|-----------------------------------||
 7. Next Contestant

Guitar 1 (flanger)(Palm Muted)

D chord diagramDD |--------------------------------------------|
A chord diagramAA |--------------------------------------------|
F chord diagramFF |--------9---7---7-9-------9---7---7-9-------|
C chord diagramCC |------9---9---9---------9---9---9-----------|
G chord diagramGG |----7-----------------7---------------------|
C chord diagramCC |--------------------------------------------|


guitar 2
D chord diagramDD |-----------------------------------------|
A chord diagramAA |---10/12-\8~---10~-10/12-\8~--8/10-10~---|
F chord diagramFF |-------------9---------------------------|
C chord diagramCC |-----------------------------------------|
G chord diagramGG |-----------------------------------------|
C chord diagramCC |-----------------------------------------|


pre-chorus, “Here comes the next contestant…”
D chord diagramDD |------------------------|
A chord diagramAA |------------------------|
F chord diagramFF |------------------------|
C chord diagramCC |---5-----7--------------|
G chord diagramGG |---5-----7--------------|
C chord diagramCC |---5-----7--------------|


chorus, “Is that your hand….”
D chord diagramDD |-------------------------|-----------------------------------|
A chord diagramAA |-------------------------|-----------------------------------|
F chord diagramFF |-------------------------|-----------------------------------|
C chord diagramCC |--0h2h5-2--5-5--0-0--7-7-|--0h2h5-2--5-5--0-0-0-0-7-7-7-7----|
G chord diagramGG |--0h2h5-2--5-5--0-0--7-7-|--0h2h5-2--5-5--0-0-0-0-7-7-7-7----|
C chord diagramCC |--0h2h5-2--5-5--0-0--7-7-|--0h2h5-2--5-5--0-0-0-0-7-7-7-7----|

D chord diagramDD |-------------------------------------------------|
A chord diagramAA |-------------------------------------------------|
F chord diagramFF |-------------------------------------------------|   x 2
C chord diagramCC |---2-2-2-2--5-5-5-5--0-0-0-0--7777-/12121212-----|
G chord diagramGG |---2-2-2-2--5-5-5-5--0-0-0-0--7777-/12121212-----|
C chord diagramCC |---2-2-2-2--5-5-5-5--0-0-0-0--7777-/12121212-----|

 There goes the next contestant
D chord diagramDD |---------------------|
A chord diagramAA |---------------------|
F chord diagramFF |---------------------|
C chord diagramCC |---5-5---7-7---------|
G chord diagramGG |---5-5---7-7---------|
C chord diagramCC |---5-5---7-7---------|

bridge
D chord diagramDD |-----------------------------------------|
A chord diagramAA |-----------------------------------------|
F chord diagramFF |-----------------------------------------|
C chord diagramCC |-----------------------------------------|
G chord diagramGG |-----------------------------------------|
C chord diagramCC |--0h2h5p2-0h2h5p2—0h2h5p2-0h2h5-7r-5r----|


D chord diagramDD |-------------------------------------------------|
A chord diagramAA |-------------------------------------------------|
F chord diagramFF |-------------------------------------------------|
C chord diagramCC |-------------------------------------------------|
G chord diagramGG |--------------------------------5----------------|
C chord diagramCC |--0h2h5p2-0h2h5p2—0h2h5p2-0h2h5---7-5-2--7-5-2-0-|
				  (    Palm Muted  )

D chord diagramDD |-----------------------------------------|
A chord diagramAA |-----------------------------------------|
F chord diagramFF |-----------------------------------------|
C chord diagramCC |-----------------------------------------|
G chord diagramGG |-----------------------------------------|
C chord diagramCC |--0h2h5p2-0h2h5p2—0h2h5p2-0h2h5-7r-5r----|

D chord diagramDD |-----------------------------------------------|
A chord diagramAA |-----------------------------------------------|
D chord diagramDD |-----------------------------------------------|
C chord diagramCC |-----------------------------------------------|
G chord diagramGG |--------------------------------5--------------|
C chord diagramCC |--0h2h5p2-0h2h5p2—0h2h5p2-0h2h5---7-5-2--7-5-0-|
			          (  Palm Muted  )


D chord diagramDD |--------------------------------------------------|
A chord diagramAA |--------------------------------------------------|
F chord diagramFF |--------------------------------------------------|
C chord diagramCC |--------------------------------------------------|
G chord diagramGG |--0-2--------0-2-5-7--0-2-----5-------------------|
C chord diagramCC |--0-2-/5-2r--0-2-5-7--0-2-/5----7-5-2--7-5-0(~)---|
	       (Palm Muted)    	(Palm Muted)


outro

D chord diagramDD |-------------------------|-----------------------------------|
A chord diagramAA |-------------------------|-----------------------------------|
F chord diagramFF |-------------------------|-----------------------------------|
C chord diagramCC |--0h2h5-2--5-5--0-0--7-7-|--0h2h5-2--5-5--0-0-0-0-7-7-7-7----|
G chord diagramGG |--0h2h5-2--5-5--0-0--7-7-|--0h2h5-2--5-5--0-0-0-0-7-7-7-7----|
C chord diagramCC |--0h2h5-2--5-5--0-0--7-7-|--0h2h5-2--5-5--0-0-0-0-7-7-7-7----|

D chord diagramDD |------------------------------------------------|
A chord diagramAA |------------------------------------------------|
F chord diagramFF |------------------------------------------------|   x 2
C chord diagramCC |---2-2-2-2--5-5-5-5--0-0-0-0--7777-12121212-----|
G chord diagramGG |---2-2-2-2--5-5-5-5--0-0-0-0--7777-12121212-----|
C chord diagramCC |---2-2-2-2--5-5-5-5--0-0-0-0--7777-12121212-----|

D chord diagramDD |------------------------------------------------|
A chord diagramAA |------------------------------------------------|
F chord diagramFF |------------------------------------------------|   x 2
C chord diagramCC |---2-2-2-2--5-5-5-5--0-0-0-0--7777-12121212-----|
G chord diagramGG |---2-2-2-2--5-5-5-5--0-0-0-0--7777-12121212-----|
C chord diagramCC |---2-2-2-2--5-5-5-5--0-0-0-0--7777-12121212-----|


“There goes the next contestant…”
D chord diagramDD |---------------------|
A chord diagramAA |---------------------|
F chord diagramFF |---------------------|
C chord diagramCC |---5-5---7-7---------|
G chord diagramGG |---5-5---7-7---------|
C chord diagramCC |---5-5---7-7---------|


 8. Side of a Bullet

E chord diagramEE----------------------------------------|
B chord diagramBB-15-15-15-15----------------------------|
G chord diagramGG-15-14----14-12-12----------------------|
D chord diagramDD-------------------14-14-12----------12-|
A chord diagramAA----------------------------14-12-12----|
E chord diagramEE----------------------------------------|

E chord diagramEE-------------------------------------------------------------------|
B chord diagramBB-------------------------------------------------------------------|
G chord diagramGG----------12H14-13-------------------12-12-12----------12H14-13----|
D chord diagramDD-14-14-14----------14-14-------12H14----------14-14-14----------14-|
A chord diagramAA-------------------------12H14-------------------------------------|
E chord diagramEE-------------------------------------------------------------------|

E chord diagramEE------------19-20-22-20-19----19-20-22-20-19----19-20-22-20-19-|
B chord diagramBB----12---17----------------22----------------22----------------|
G chord diagramGG-------5-------------------------------------------------------|
D chord diagramDD-14------------------------------------------------------------|
A chord diagramAA---------------------------------------------------------------|
E chord diagramEE---------------------------------------------------------------|

E chord diagramEE-19-20-22-20-19----19-20-22-20-19----19-20-22-20-19----19-20-22-20-19-|
B chord diagramBB----------------22----------------22----------------22----------------|
G chord diagramGG----------------------------------------------------------------------|
D chord diagramDD----------------------------------------------------------------------|
A chord diagramAA----------------------------------------------------------------------|
E chord diagramEE----------------------------------------------------------------------|

E chord diagramEE----19-20-24-24-22-22-22-22---|
B chord diagramBB-22---------------------------|
G chord diagramGG------------------------------|
D chord diagramDD------------------------------|
A chord diagramAA------------------------------|
E chord diagramEE------------------------------|


 9. If Everyone Cared

Verse/Intro(/After chorus with distorsion (muted))

e|-------------------------------------------------------------------------|
B|-------------------------------------------------------------------------|
G|----------1----------------4---------------------------------1-----------|
D|------4-------4--------7--------7-------2----4----2------4-------4-------|
A|----4---4---4--------7---7----7-------2---2-----2-------4---4---4--------|
E|--2----------------5----------------0----------------2-------------------|

Singing Amen...

e|--------------------------9---------9------------------------------------|
B|------------10-9----------9---------9------------------------------------|
G|---------11-------------9--------11--------------------------------------|
D|------11--------------9-------11-----------------------------------------|
A|----9---------------7-------9--------------------------------------------|
E|-------------------------------------------------------------------------|

(the second accord is not sure...maybe the third is that, twice)

Chorus

e|-----------------------------------------|
B|-----------------------------------------|
G|-----------------------------------------|
D|-4-4----7-7----2-2----4-4----7-7----2~---|
A|-4-4----7-7----2-2----4-4----7-7----2~---|
E|-2-2----5-5----0-0----2-2----5-5----0~---|


Solo

E|--------------------------------------------------------------|
B|------------2--------------2--------------5-s7--7-s10---------|
G|-----2--4-----------2--4------4--2--4-s6--------------------14|
D|--4-------------4---------------------------------------s16---|
A|--------------------------------------------------------------|
D|--------------------------------------------------------------|

E|------------------------------|
B|----14--------------14--------|
G|16----------14--16--------16~~|
D|--------16--------------------|
A|------------------------------|
D|------------------------------|


After solo verse

e|-----------------------------------7----------9-----------9--------------|
B|-----------10-9----------14-------------------------------------------14-|
G|--------11------------14---------9---------11----------11----------14----|
D|-----11------------14----------9--------11----------11----------14-------|
A|---9------------12-----------7--------9-----------9----------12----------|
E|-------------------------------------------------------------------------|


e|--------7------|
B|---------------|
G|------9--------|
D|----9----------|
A|--7------------|
E|---------------|


10. Someone That You're With

e|-------------------|
B|-------------------|
G|-------------------|
D|-------------------|x4
A|-3h5---------------|
D|--------0-0--------|

e|-------------------|
B|-------------------|
G|-------------------|
D|-------------------|x4
A|-3h5---------------|
D|-------5-5---------|

e|-------------------|
B|-------------------|
G|-------------------|
D|-------------------|x2
A|-3h5---------------|
D|-------3-3---------|

e|-------------------|
B|-------------------|
G|-------------------|
D|-------------------|x2
A|-3h5---------------|
D|-------5-5---------|

e|-------------------|
B|-------------------|
G|-------------------|
D|-------------------|x4
A|-3h5---------------|
D|--------0-0--------|

e|------------------------------------|-----------------------------------|
B|------------------------------------|-----------------------------------|
G|-3-3-3---3-3-3---3-3-3---3-3-3---3--|-----------------------------------|
D|-3-3-3---3-3-3---3-3-3---3-3-3---3--|-5-5-5---5-5-5---5-5-5---5-5-5---5-|
A|-1-1-1---1-1-1---1-1-1---1-1-1---1--|-5-5-5---5-5-5---5-5-5---5-5-5---5-|
D|------------------------------------|-5-5-5---5-5-5---5-5-5---5-5-5---5-|

e|------------------------------------|------------------------------------|
B|------------------------------------|------------------------------------|
G|------------------------------------|------------------------------------|
D|------------------------------------|-6-6-6---6-6-6---6-6-6---6-6-6----6-|
G|-3-3-3---3-3-3---3-3-3---3-3-3---3--|-6-6-6---6-6-6---6-6-6---6-6-6----6-|
A|-3-3-3---3-3-3---3-3-3---3-3-3---3--|-3-3-3---3-3-3---3-3-3---3-3-3----3-|
D|-3-3-3---3-3-3---3-3-3---3-3-3---3--|------------------------------------|


11. Rockstar

Intro/Verse 1:
 clean


Guitar 1&2

D chord diagramDD-------------------------------------------------------------------------------|
A chord diagramAA-------------------------------------------------------------------------------|
F chord diagramFF----------------------7--7--7-7-7--7-7-----------------------------------------|
C chord diagramCC---7--7--7-7-7--7-7---7--7--7-7-7--7-7---5--5--5-5-5--5-5---7--7--7-7-7--7-7---|
G chord diagramGG---7--7--7-7-7--7-7---5--5--5-5-5--5-5---5--5--5-5-5--5-5---7--7--7-7-7--7-7---|
C chord diagramCC---7--7--7-7-7--7-7----------------------5--5--5-5-5--5-5---7--7--7-7-7--7-7---|

At the ending:

D chord diagramDD----------------------------------------------|
A chord diagramAA----------------------------------------------|
F chord diagramFF-------------------------------------7~-------|
C chord diagramCC------10--10--10--10-10-10--10-10----7~-------|
G chord diagramGG------10--10--10--10-10-10--10-10----5~-------|
C chord diagramCC------10--10--10--10-10-10--10-10-------------|

Chorus:
 Light Distortion


Guitar 1

D chord diagramDD--------------------------------------------------------------------|
A chord diagramAA--------------------------------------------------------------------|
F chord diagramFF---------------------------7-7-7-7---10-10-10-10--------------------|
C chord diagramCC---7-7-7-7---10-10-10-10---7-7-7-7---10-10-10-10---5-5-5-5----------|
G chord diagramGG---7-7-7-7---10-10-10-10---5-5-5-5---8—-8--8--8----5-5-5-5----------|
C chord diagramCC---7-7-7-7---10-10-10-10---------------------------5-5-5-5----------|


Guitar 2

D chord diagramDD--------------------------------------------------------------------|
A chord diagramAA--------------------------------------------------------------------|
F chord diagramFF---------------------------7-7-7-7---10-10-10-10---12-12-12-12------|
C chord diagramCC---7-7-7-7---10-10-10-10---7-7-7-7---10-10-10-10---12-12-12-12------|
G chord diagramGG---7-7-7-7---10-10-10-10---5-5-5-5---8—-8--8--8----10-10-10-10------|
C chord diagramCC---7-7-7-7---10-10-10-10--------------------------------------------|

Ending Chorus:

D chord diagramDD--------------------|  2x
A chord diagramAA--------------------|
F chord diagramFF---------7~---------|
C chord diagramCC---10~---7~---7~----|
G chord diagramGG---10~---5~---7~----|
C chord diagramCC---10~--------7~----|

Verse 2:
 Clean


Guitar 1&2

D chord diagramDD-------------------------------------------------------------------------------|
A chord diagramAA-------------------------------------------------------------------------------|
F chord diagramFF----------------------7--7--7-7-7--7-7-----------------------------------------|
C chord diagramCC---7--7--7-7-7--7-7---7--7--7-7-7--7-7---5--5--5-5-5--5-5---7--7--7-7-7--7-7---|
G chord diagramGG---7--7--7-7-7--7-7---5--5--5-5-5--5-5---5--5--5-5-5--5-5---7--7--7-7-7--7-7---|
C chord diagramCC---7--7--7-7-7--7-7----------------------5--5--5-5-5--5-5---7--7--7-7-7--7-7---|

At the ending:

D chord diagramDD----------------------------------------------|
A chord diagramAA----------------------------------------------|
F chord diagramFF-------------------------------------7~-------|
C chord diagramCC------10--10--10--10-10-10--10-10----7~-------|
G chord diagramGG------10--10--10--10-10-10--10-10----5~-------|
C chord diagramCC------10--10--10--10-10-10--10-10-------------|


Chorus:
 Light Distortion


Guitar 1

D chord diagramDD--------------------------------------------------------------------|
A chord diagramAA--------------------------------------------------------------------|
F chord diagramFF---------------------------7-7-7-7---10-10-10-10--------------------|
C chord diagramCC---7-7-7-7---10-10-10-10---7-7-7-7---10-10-10-10---5-5-5-5----------|
G chord diagramGG---7-7-7-7---10-10-10-10---5-5-5-5---8—-8--8--8----5-5-5-5----------|
C chord diagramCC---7-7-7-7---10-10-10-10---------------------------5-5-5-5----------|


Guitar 2

D chord diagramDD--------------------------------------------------------------------|
A chord diagramAA--------------------------------------------------------------------|
F chord diagramFF---------------------------7-7-7-7---10-10-10-10---12-12-12-12------|
C chord diagramCC---7-7-7-7---10-10-10-10---7-7-7-7---10-10-10-10---12-12-12-12------|
G chord diagramGG---7-7-7-7---10-10-10-10---5-5-5-5---8—-8--8--8----10-10-10-10------|
C chord diagramCC---7-7-7-7---10-10-10-10--------------------------------------------|


Ending Chorus:

D chord diagramDD--------------------|  1x
A chord diagramAA--------------------|
F chord diagramFF---------7~---------|
C chord diagramCC---10~---7~---7~----|
G chord diagramGG---10~---5~---7~----|
C chord diagramCC---10~--------7~----|

Bridge:

„I wanna sing those Songs...“
D chord diagramDD--------------------------------------------------------|
A chord diagramAA--------------------------------------------------------|
F chord diagramFF--------------------------------------------------------|
C chord diagramCC----10-10-10-10-10---5-5-5-5-5---10-10-10-10-10~---5~---|
G chord diagramGG----10-10-10-10-10---5-5-5-5-5---10-10-10-10-10~---5~---|
C chord diagramCC----10-10-10-10-10---5-5-5-5-5---10-10-10-10-10~---5~---|


D chord diagramDD-------------------------------------------------------------------------------|
A chord diagramAA-------------------------------------------------------------------------------|
F chord diagramFF----------------------7--7--7-7-7--7-7-----------------------------------------|
C chord diagramCC---7--7--7-7-7--7-7---7--7--7-7-7--7-7---5--5--5-5-5--5-5---7--7--7-7-7--7-7---|
G chord diagramGG---7--7--7-7-7--7-7---5--5--5-5-5--5-5---5--5--5-5-5--5-5---7--7--7-7-7--7-7---|
C chord diagramCC---7--7--7-7-7--7-7----------------------5--5--5-5-5--5-5---7--7--7-7-7--7-7---|

Ending:
 Light Distortion


Guitar 1

D chord diagramDD--------------------------------------------------------------------|
A chord diagramAA--------------------------------------------------------------------|
F chord diagramFF---------------------------7-7-7-7---10-10-10-10--------------------|
C chord diagramCC---7-7-7-7---10-10-10-10---7-7-7-7---10-10-10-10---5-5-5-5----------|
G chord diagramGG---7-7-7-7---10-10-10-10---5-5-5-5---8—-8--8--8----5-5-5-5----------|
C chord diagramCC---7-7-7-7---10-10-10-10---------------------------5-5-5-5----------|


Guitar 2

D chord diagramDD--------------------------------------------------------------------|
A chord diagramAA--------------------------------------------------------------------|
F chord diagramFF---------------------------7-7-7-7---10-10-10-10---12-12-12-12------|
C chord diagramCC---7-7-7-7---10-10-10-10---7-7-7-7---10-10-10-10---12-12-12-12------|
G chord diagramGG---7-7-7-7---10-10-10-10---5-5-5-5---8—-8--8--8----10-10-10-10------|
C chord diagramCC---7-7-7-7---10-10-10-10--------------------------------------------|

There you have the entire album from 2005! I keep re-editing somethings, but just trying
make it perfect... If you read this tablature and play please rate and leave a comment!
it doesn't sound right to you before you leave a bad comment, check the part at
speeds! Please if there is something REALLY wrong horrifically or just a small
in the entire tablature comment it and I will fix it. Leave: WHAT SONG, WHAT VERSE, AND

Comment this song and these guitar tabs

Do you have corrections, comments on the guitar tabs, thoughts about the song or a message to the author? Write them below.