Guitar Tabs Explorer
Nickelback bass tabs for All the right reasons album

All The Right Reasons Album bass tab


Be the first to rate

Jamplay guitar lessons

All The Right Reasons Album bass tab by Nickelback

Bass tabs with lyrics

Print

Year Released: 2005
Album: All The Right Reasons
Bassist Mike Kroeger

Song List and Tab Creator
1. Follow You Home - Bass Pants
2. Fight For All The Wrong Reasons - Bass Pants
3. Photograph - Bass Pants
4. Animals - ClosedRoad
5. Savin' Me - Bass Pants
6. Far Away - ClosedRoad
7. Next Contestant - ClosedRoad
8. Side Of A Bullet - Closed Road
9. If Everyone Cared - Fixed up IHATECHILDRENS original Tab
10. Someone That You're With - Bass Pants
11. Rockstar - Bass Pants

Thanks goes out to ClosedRoad and IHATECHILDREN for the tabs that i used.


“Follow You Home”

Intro
G|------------------------------------------------------------------|
D|------------------------------------------------------------------|
A|----------------------------------3--3\1---------------------1/3--|
D|-5-3-5-3-5-8-5-3----5-3-5-8-3-5------------5-3-5-8-3-5---1--------|

Verse
G|--------------------------------------------------------------------|
D|--------------------------------------------------------------------|
A|------------------3—-3\1--------------------1/3---------------------|
D|----5-3-5-8-3-5------------5-3-5-8-3-5---1--------------------------|

Pre Chorus
G|--------------------------------------------------------------------|
D|--------------------------------------------------------------------|
A|---------------3---3\1----------------------1/3---------------------|
E|-5-3-5-8-8-5-3-----------5-3-5-8-8-5-3---1--------------------------|

Chorus
G|--------------------------------------------------------------------|
D|--------------------------------------------------------------------|
A|-------3-3-----------------3-3\1-----------------3-1/3---------3-3--|
D|-1-1---------5-3-5-8-3-5-----------5-3-5-8-3-5-----------1-1--------|

G|--------------------------------------------------------------------|
D|--------------------------------------------------------------------|
A|-----3-3--3\1-------3h5--3\1------------3-3--3\1--------------------|
D|-5\------------8\------------------5\------------8\--3-5-3-5-8-5-3--|

Intro
Verse
Pre Chorus
Chorus
Chorus During Solo part one
Pre chorus without the slides for solo part 2
Verse
Chorus
Intro

“Fight For All The Wrong Reasons”

Chorus
G|------------------------------------------------|
D|-------6----------5--------------5h7p5h7/8\7p5--|
A|----------5-6-5-6---6-5--------5----------------| 2x
D|-0-000-------------------5-555------------------|

Verse
G|--------------------------------------|
D|--------------------------------------|
A|----------00000000-33333333-66666666--| 6x
D|-00000000-----------------------------|

Pre Chorus
G|--------------|
D|--------------|
A|--------------|
D|-00-00-55-55--|

Chorus 4x
Verse 6x
Pre Chorus
Chorus 4x

Bridge
G|-----------------------------|
D|-----------------------------|
A|-----------------------------|
D|-00-00--55-55--00-00--55-55--|

G|--------------------------------------|
D|--------------------------------------|
A|--------------------------------9h10--| 2x
D|-00-00--55-55--00-00--55-55--00-------|

Rest

G|----------------------------------------|
D|----------------------------------------|
A|----9h10----10h12-------------10/12\10--| 2x
D|-00------00-------00-10h12-00-----------|

G|-----------------------------|
D|-----------------------------|
A|-----------------------------|
D|-00-00--55-55--00-00--55-55--|

Rest
Pre Chorus
Chorus 4x

End
G|-----------------------------------------------------|
D|-----------------------------------------------------|
A|--10h12p10\9--10h12p10\9--10h12p10\9--10h12p10\9-----|
D|--------------------------------------------------0--|

"Photograph"

Verse (0:13)
G|--------------------------------||
D|--------------------------------||
A|-6------------------------------||
E|---6-6~--8-3-3~--9-4-4~--7-4-4~-|| x5

  (0:50)
G|----------------||
D|----------------||
A|-6--------------||
E|---6-6~---------||

  (0:54)
G|----------------||
D|----------------||
A|----------------||
E|-4~--2~--4~-----||

 Chorus  (1:01)
G|----------------------------------------------------------------||
D|----------------------------------------------------------------||
A|-6-6------------------------------------------------------------||
E|-----6-6-6-6--8-8/3-3-3-3--9-9/4-4-4-4--7-7/4-4-4-4-------------|| x2

  Pre-Verse (1:26)
G|----------------------------||
D|----------------------------||
A|-6--------------------------||
E|---6-6~--8-3-3~--9-4-4~--7~-||

 Verse (1:39)
G|--------------------------------||
D|--------------------------------||
A|-6------------------------------||
E|---6-6~--8-3-3~--9-4-4~--7-4-4~-|| x2

  (2:05)
G|----------------||
D|----------------||
A|-6--------------||
E|---6-6~---------||

  (2:08)
G|----------------||
D|----------------||
A|----------------||
E|-4~--2~--4~-----||

 Chorus  (2:12)
G|----------------------------------------------------------------||
D|----------------------------------------------------------------||
A|-6-6------------------------------------------------------------||
E|-----6-6-6-6--8-8/3-3-3-3--9-9/4-4-4-4--7-7/4-4-4-4-------------|| x2

 Verse (2:45)
G|--------------------------------||
D|--------------------------------||
A|-6------------------------------||
E|---6-6~--8-3-3~--9-4-4~--7-4-4~-||

 Chorus  (3:07)
G|----------------------------------------------------------------||
D|----------------------------------------------------------------||
A|-6-6------------------------------------------------------------||
E|-----6-6-6-6--8-8/3-3-3-3--9-9/4-4-4-4--7-7/4-4-4-4-------------|| x2


"Animals"

Intro
first only guitar

Thrid bar of the guitar play:
G --------|
D --------|
A --------|
D -5\\\0--|

Intro
G ------------------------------------|
D ------------------------------------| 2x
A --5-----3------11/333--5-----3------|
D ----0-3---555------------0-3---555--|

Verse
G ---------------------------------------|
D ---------------------------------------| 2x
A ----------------------------333-333-3--|
D -0-000-000-000304-555-555-5------------|

Verse (with guitar)
G ---------------------------------------|
D ---------------------------------------|
A --------------------------(333-333-3)--| if you listen carfully you'll
D -0-000-000-000-0-555-555-5-------------| here the bass go lower
B ---------------------------111-111-1---|

G ---------------------------------------|
D ---------------------------------------|
A ---------------------------3333333333--|
D -0-000-000-000-0-555-555-5-------------|

Chorus
G ----------------------------------------|
D ----------------------------------------| 2x
A -5-----3-----11/333-5-----3-----11\333--|
D ---0-3---555----------0-3---555---------|

After Chorus
G ------------------|
D ------------------| 4x
A -5-----3----------|
D ---0-3---555\\\1--|

Verse              2x
Verse(with guitar) 1x
Chorus             2x
After Chorus       4x

Bridge
G -------------------------------------------|
D -------------------------------------------| 2x
A -------------------------------3333333333--|
D -0000000000000000-5555555555---------------|

Verse (with guitar) 1x
Chorus              4x

End
G -----------------------------------------|
D -----------------------------------------|
A -----------------------------------------|
D -12p10p0--12p10p0--12p10p0--12p10p00--0--|

"Savin' Me"

Verse:
G:-|--------------------------------| \
D:-|--------------------------------|  \
A:-|--------------------------------|   \
D:-|-6----1-1----5-3----0-0---0-----|    \
                                      x2
G:-|--------------------------------|    /
D:-|--------------------------------|   /
A:-|--------------------------------|  /
D:-|-6----1-1----5-3----3-3---------| /

G:-|--------------------------------|
D:-|--------------------------------|
A:-|--------------------------------|
D:-|-6----1-1----5-3----------------|

Chorus:
G:-|--------------------------------|
D:-|--------------------------------|
A:-|--------------------------------|
D:-|6-6-6-6-1-1-1-1-3-3-3-3-1-1-3-3-|

G:-|--------------------------------|
D:-|--------------------------------|
A:-|--------------------------------|
D:-|6-6-6-6-1-1-1-1-3~~~~~~~~-------|

Verse:
G:-|--------------------------------| \
D:-|--------------------------------|  \
A:-|--------------------------------|   \
D:-|-6----1-1----5-3----0-0---0-----|    \
                                      x2
G:-|--------------------------------|    /
D:-|--------------------------------|   /
A:-|--------------------------------|  /
D:-|-6----1-1----5-3----3-3---------| /

G:-|--------------------------------|
D:-|--------------------------------|
A:-|--------------------------------|
D:-|-6----1-1----5-3----------------|

Chorus:
G:-|--------------------------------|
D:-|--------------------------------|
A:-|--------------------------------|   x5
D:-|6-6-6-6-1-1-1-1-3-3-3-3-1-1-3-3-|

G:-|--------------------------------|
D:-|--------------------------------|
A:-|--------------------------------|
D:-|6-6-6-6-1-1-1-1-3~~~~~hold~~~~~~|

G:-|--------------------------------|
D:-|--------------------------------|
A:-|--------------------------------|   x5
D:-|6-6-6-6-1-1-1-1-3-3-3-3-1-1-3-3-|

G:-|--------------------------------|
D:-|--------------------------------|
A:-|--------------------------------|
D:-|6-6-6-6-1-1-1-1-3~~~~~hold~~~~~~|


"Far Away"

verse I
G ----------------------|
D ----------------------|
A -2/4---/6-------------|
E ------2---4/7--0--2---|

II
G --------------------|
D --------------------| 2x
A -2~-----------------|
E -----2~--4~--0~--2--|

verse I 1x

Pre Chorus
G ------------------------------|
D ------------------------------|
A -4-4-4-4-4-4-4-4---------7~---|
E -----------------0-0-0-0------|

Chorus            2x                               2x
G ------------------------------|-----------------------|
D ------------------------------|-----------------------|
A -222246-----------------------|--2222-----------------|
E --------2222/6p444444/000000--|-------2222-4444-0000--|

Verse I  1x
verse II 2x
verse I  1x
pre Chorus 1x
Chorus
No bass Till
Chorus only first bar then

G --------------------|
D --------------------|
A --222246------------|
E ---------2222/6p4~--|

Ending Chorus
G ------------------------------|
D ------------------------------| 6x
A -444444-----------------------|
E --------444444-666666-222222--|

End on
G -------|
D -------|
A --4~---|
E -------|


"Next Contestant"

Intro
First only guitar then:

Verse I
G ---------------------|
D ---------------------|
A ---------------------|
E ---------------------| 4x
C -2~---5~---0~---7~---|

verse II
G --------------------------------------|
D --------------------------------------|
A --------------------------------------|
E --------------------------------------| 4x
C -22222222-55555555-00000000-77777777--|

Chorus
G ---------------------------------------------|
D ---------------------------------------------|
A ---------------------------------------------|
E ---------------------------------------------| 1x
C -0h2h5-2--55-00-77---0h2h5-2--55--0000-7777--|

G -------------------------|
D -------------------------|
A -------------------------|
E -------------------------| 2x
C -2222-5555-0000-77/1212--|

G ---------|
D ---------|
A ---------|
E ---------| 1x
C -55--77--|

Verse I  1x
Verse II 3x
Chorus

First rest then bass comes in with

Bridge
G ------------------|
D ------------------|
A ------------------|
E -3--------2-------|
C ---5-2-0----4-1-0-|

G-----------------------------------------------------------------------------------------|
D-----------------------------------------------------------------------------------------|
A-----------------------------------------------------------------------------------------|
E------------------------------------------------------------------------3-------2--------|
C-0h2h5p2--0h2h5p2--0h2h5p2--0h2h5-7-5--0h2h5p2--0h2h5p2--0h2h5p2--0h2h5---5-2-0---4-1-0--|

G -------------------------------------------|
D -------------------------------------------|
A -------------------------------------------|
E -------------------------3--------2--------| 2x
C -02-/5-2--0-2-5-7--02-/5---5-2-0----4-1-0--|

Verse I 2x
Chrorus until 2end bar then

G -------------------------------------------|
D -------------------------------------------|
A -------------------------------------------|
E -------------------------------------------| 2x
C -22222222-55555555-00000000-7777/12121212--|

End
G ----------|
D ----------|
A ----------|
E ----------|
C --55--77--|

"Side of a Bullet"

Intro first only guitar then

G  ---------------------------------------------|
D  ---------------------------------------------|
A  ---------------------------------------------|
F# -----------------5------------------3-----5--|
B  -00-000-000-05653---00-000-00-6-5-3---5-3----|

verse                                       (play this 2 times............)
G  -----|-------------|-----|-------------|-------------------|-------------|
D  -----|-------------|-----|-------------|-------------------|-------------|
A  -----|-------------|-----|-------------|-------------------|-------------|
F# -----|-----3----5--|-----|-----3----5--|-------------------|-----3----5--|
B  -00--|--653--53----|-00--|--653--53----|-00--00-00-0-10-0--|--653--53----|

pre Chorus
G  -------------------------|
D  -------------------------|
A  -------------------------| 4x
F# -----------------3----5--|
B  -00-3^--0-3^--653--53----|

Chorus (Listen for perfect timing)
G  -------------------------------|--------------------------------| 2x
D  -------------------------------|--------------------------------|
A  -------------------------------|--------------------------------|
F# -------10---12---------3-------|-------10---12-------3-----5----|
B  -00-12----0----10---03----053--|--00-12---0----10--03---03------|

Only guitar again
Intro
Verse
pre Chorus 4x
Chorus 2x
Only guitar again

Guitar solo

intro
last 2 bars of verse 2x
Pre chorus 2x
Chorus 2x
Intro 4x

"If Everyone Cared"

Intro: Don't Play

Verse (Come in with drums)

G|--------------------|--------------------|
A|--------------------|--------------------|
D|--------------------|--------------------|
E|2---4/5---0---0-2---|2---4/5---0---0-2---|


Pre-Chorus: Don't Play

Chorus                    Ending
G|--------------------|--------------|
D|--------------------|--------------|
A|5555----------------|5555----------|
E|-----5555-0000-2222-|-----5555-0---|


Pre-Verse: Don't Play

Verse

Pre-Chorus: Don't Play

Chorus x5 Then Ending

Bridge: Don't Play

Chorus x6 Then Ending

“Someone That You’re With”

Rest

Verse
G|--------------------------------------------------------|
D|--------------------------------------------------------|
A|--------------------------------------------------------|
D|-0-1-1--0-1-1--0-1-1--0-1-1--1-3-3--1-3-3--1-3-3--1-3-3-|

G|--------------------------------------------------------|
D|--------------------------------------------------------|
A|--------------------------------------------------------|
D|-3-1-1-—3-1-1--1-3-3--1-3-3--3-5-5--3-5-5--3-5-5--3-5-5-|

Pre Chorus
G|--------------------------------------------------------------------|
D|--------------------------------------------------------------------|
A|--------------------------------------------------------------------|
D|-8-8--8-8-8--8-8-8--8-8-8--5-5-5--5-5-5--5-5-5--5-5-5---------------|

G|--------------------------------------------------------------------|
D|--------------------------------------------------------------------|
A|--------------------------------------------------------------------|
D|-3-3-3--3-3-3--3-3-3--3-3-3--10-10-10--10-10-10---3-3-3-3-3-3-3-3-3-|

Chorus
G|------------------------------------------------------|
D|-------------------------------------------(tens)-----|
A|-00000000000000000--5555555555555555—1010101010101010-|
D|------------------------------------------------------|

G|--------------------------------------|
D|--------------------------------------|
A|-55555555-0000000000000000-------x2---|
D|--------------------------------------|

G|--------------------------------------------------------|
D|--------------------------------------------------------|
A|-33333333--55555555—3h5-----3h5-----3h5-----3h5---------|
D|------------------------0-0-----0-0-----0-0---------x2--|

G|-------------------------------------------------------------|
D|-------------------------------------------------------------|
A|-88888888-1010101010101010-33333333-55555555-88888888-10-10~-|
D|-------------------------------------------------------------|

G|---------------------------|
D|---------------------------|
A|---------------------------|
D|12-12--12-12-12--12-12-12--|

Rest
Verse
Pre Chorus
Chorus
Rest
Chorus

"Rockstar"


BASS COMES IN WITH THIS

G----------------------------------|
D-5-3------------------------------|
A-----5------3---------------------|
E--------3-6-----------------------|

MAIN RIFF/VERSE

G------------------------------------------------------------------------------|
D-----------------------10------------------3----------------------5-3---------|
A-----10--10--10--10-12------3-3--3-3-3-3-6----------------------------5-----3-|
E-3/------------------------------------------1-1--1-1-1-1-1-1-3/--------3-6---|

BIT BEFORE CHORUS

G----------------------------------|
D----------------------------------|
A-1---------------3----------------|
E----------------------------------|

CHORUS

G------------------------------------------------------|
D------------------------------------------------------|
A-------------1-1--1-1-1--3-3--3-3-3--6-6-6-6--8-8-8-8-|
E-3-3--3-3-3-------------------------------------------|

END OF CHORUS

G-----------------------------------------|
D---------------------------5-3-----------|
A-1----3--------1-----3---------5-----3---|
E--------3----------------3-------3-6-----|

BRIDGE
G-----------------------------------------------------------|
D-----------------------------------------------------------|
A-6-6-6-6-6-6-6-6-----------------6-6-6-6-6-6-6-6----8------|
E-----------------6-6-6-6-6-6-6-6-------------------------8-|

Comment this song and these bass tabs

Do you have corrections, comments on the bass tabs, thoughts about the song or a message to the author? Write them below.