Log in

One click and you are in

Login with Facebook Login with Google

Why sign up and log in

Guitar Tabs Explorer
Nick Cave And The Bad Seeds bass tabs for Sad waters

Sad Waters bass tab - Nick Cave And The Bad Seeds

Nick Cave And The Bad Seeds bass tabs for Sad waters

Bass tabs

  • Difficulty: Beginner
Tuning: Standard (E A D G)

🎸 Intro:

G|--------------------------------------------------------------------------------------------------|
D|--7-----------------------7-----------------------7-----------------------5--------5--7--9--11----|
A|-----------------5--7--------------------5--7--------------------5--7-----------------------------|
E|--------------------------------------------------------------------------------------------------|

🎸 Verse 1:

G|--------------------------------------------------------------------------------------------------|
D|--12-------12-12----12----12-12----12-12----12----12-------12-12----12----12-11----11-11----------|
A|--------------------------------------------------------------------------------------------12----|
E|--------------------------------------------------------------------------------------------------|

G|--------------------------------------------------------------------------------------------------|
D|--12-------12-12----12----12-12----12-12----11-9--------------------7-----5--------5--7--9--11----|
A|--------------------------------------------------7--------7--7-----------------------------------|
E|--------------------------------------------------------------------------------------------------|

x4

🎸 Instrumental:

G|--------------------------------------------------------------------------------------------------|
D|--12-12----12-12----12----12-12----12-12----------12-12----12-12----9-----12-12----11-12----------|
A|--------------------------------------------12----------------------------------------------12----|
E|--------------------------------------------------------------------------------------------------|

G|--------------------------------------------------------------------------------------------------|
D|--12-12----12-12----12----12-12----11-12----------------------------7-----5--5-----5--7--9--11----|
A|--------------------------------------------12----7--7-----7--7-----------------------------------|
E|--------------------------------------------------------------------------------------------------|

x2

🎸 Verse 2:

G|--------------------------------------------------------------------------------------------------|
D|--12-------12-12----12----12-12----12-12----12----12-------12-12----12----12-11----11-11----------|
A|--------------------------------------------------------------------------------------------12----|
E|--------------------------------------------------------------------------------------------------|

G|--------------------------------------------------------------------------------------------------|
D|--12-------12-12----12----12-12----12-12----11-9--------------------7-----5--------5--7--9--11----|
A|--------------------------------------------------7--------7--7-----------------------------------|
E|--------------------------------------------------------------------------------------------------|

x3

🎸 Instrumental:

G|--------------------------------------------------------------------------------------------------|
D|--12-12----12-12----12----12-12----12-12----------12-12----12-12----9-----12-12----11-12----------|
A|--------------------------------------------12----------------------------------------------12----|
E|--------------------------------------------------------------------------------------------------|

G|--------------------------------------------------------------------------------------------------|
D|--12-12----12-12----12----12-12----11-12----------------------------7-----5--5-----5--7--9--11----|
A|--------------------------------------------12----7--7-----7--7-----------------------------------|
E|--------------------------------------------------------------------------------------------------|

x2

🎸 Verse 3:

G|--------------------------------------------------------------------------------------------------|
D|--12-------12-12----12----12-12----12-12----12----12-------12-12----12----12-11----11-11----------|
A|--------------------------------------------------------------------------------------------12----|
E|--------------------------------------------------------------------------------------------------|

G|--------------------------------------------------------------------------------------------------|
D|--12-------12-12----12----12-12----12-12----11-9--------------------7-----5--------5--7--9--11----|
A|--------------------------------------------------7--------7--7-----------------------------------|
E|--------------------------------------------------------------------------------------------------|

x2

🎸 Instrumental:

G|--------------------------------------------------------------------------------------------------|
D|--12-12----12-12----12----12-12----12-12----------12-12----12-12----9-----12-12----11-12----------|
A|--------------------------------------------12----------------------------------------------12----|
E|--------------------------------------------------------------------------------------------------|

G|--------------------------------------------------------------------------------------------------|
D|--12-12----12-12----12----12-12----11-12----------------------------7-----5--5-----5--7--9--11----|
A|--------------------------------------------12----7--7-----7--7-----------------------------------|
E|--------------------------------------------------------------------------------------------------|

x2

🎸 Outro:

G|--------------------------------------------------------------------------------------------------|
D|--12-------12-12----12----12-12----12-12----12----12-------12-12----12----12-11----11-11----------|
A|--------------------------------------------------------------------------------------------12----|
E|--------------------------------------------------------------------------------------------------|

G|--------------------------------------------------------------------------------------------------|
D|--12-------12-12----12----12-12----12-12----11-9--------------------7-----5--------5--7--9--11----|
A|--------------------------------------------------7--------7--7-----------------------------------|
E|--------------------------------------------------------------------------------------------------|

G|--------|
D|--12----|
A|--------|
E|--------|

Almost there ...

Sign in to get your own page with links to favourite songs and more. You are just one click away...

Login with Facebook Login with Google