Log in

One click and you are in

Login with Facebook Login with Google

Why sign up and log in

Guitar Tabs Explorer
Nick Cave And The Bad Seeds bass tabs for Hiding all away

Hiding All Away bass tab by Nick Cave And The Bad Seeds

Nick Cave And The Bad Seeds bass tabs for Hiding all away

Bass tabs

Tuning: Half-Step Down (Eb Ab Db Gb)


Intro

Gb|------------------------------------|
Db|------------------------------------|
Ab|------------------------------------|
Eb|-2--2----2--2----2--2----2--2----2--|
Verse

Gb|---------------------------------------------------------|
Db|----4------------4------------4-------------4-4-4--------|
Ab|-------2-4----------2-4-----------2-4--------------2-4---|
Eb|-2---------0--2---------0--2----------0--2-------------0-|

Gb|----------------------------------------------------------|
Db|----4-4-4-/10-----4-4-4------------4-4-4------------2-4---|
Ab|-------------------------2-4--------------2-4-----------0-|
Eb|-2-------------2-------------0--2-------------0--2--------|

Gb|----------------------------------------------------------------------|
Db|----4-4-4------------4-4-4-------------4-4-4------------4-4-4---------|
Ab|-----------2-4--------------0-----------------2-4--------------2-4----|
Eb|-2-------------0--2------------2-0--2-------------0--2-------------0--|

Gb|-------------------------------------------------------------------|
Db|----4-4-4------------4-4-4------------4-4-4------------4-4-4-------|
Ab|-----------2-4--------------2-4--------------2-4-------------0-----|
Eb|-2-------------0--2-------------0--2-------------0--2-----------0--|

Gb|----------------------------------------------------------------------|
Db|----4-4-4------------4-4-4-----------4-4-4------------4-4-4-----------|
Ab|-----------2-4--------------3---------------2-4--------------3p2p0----|
Eb|-2-------------0--2------------2--2-------------0--2---------------2--|

Chorus

Gb|----------------------------------------------------------------------------|
Db|-----------2-2-4-4-4-4-------4-4-4-4-4-4--4-4-4-4-4-4--4-4-4-4--------------|
Ab|----------------------------------------------------------------------------|
Eb|-2--2-2-2--------------2--2-------------------------------------2--2--2/9/2-|

Slow slide at the end.


Verse

Gb|------------------------------------------------------------------|
Db|---------------------4-4-4----------------------------------------|
Ab|-----------2-4--------------4-2---------------4------------4-2----|
Eb|-2--2-2-2------0--2-------------0--2--2-2-2------2--2-2-2------0--|

Gb|---------------------------------------------------------------|
Db|---------------------------------------------------------------|
Ab|-----------3---------------3p2-----------2-4-------------3p2---|
Eb|-2--2-2-2-----0--2--2-2-2------2--2-2-2------0--2--2-2-2-----2-|

Gb|----------------------------------------------------------------------------|
Db|----------------------------------------------------------------------------|
Ab|-----------/9--/9-----------3p2---0------------2-4--------------2-4----3----|
Eb|-2--2-2-2----------2--2-2-2-----2----2--2-2-2------0--2--2-2-2------0----0--|

Gb|-------------------------------------------------------------------|
Db|-------------------------------------------------------4-4---------|
Ab|-----------3---------------3p2---------------0--------------3p2----|
Eb|-2--2-2-2-----0--2--2-2-2------2--2-2-2--0h2----2--2-2----------2--|

Gb|-------------------------------------------------------------------|
Db|---------------------------------------------------4-4-4-----------|
Ab|----------x--x-----------x-x-x---------------0------------3-----0--|
Eb|-2--2-2-2-------2--2-2-2-------2--2-2-2--0h2----2------------2-----|

Gb|--------------------------------------------------------------------|
Db|----4-4-4------------4-4-4-----------4-4-4------------4-4-4---------|
Ab|-----------2-4--------------3p2-------------2-4--------------3p2----|
Eb|-2-------------0--2-------------2--2------------0--2-------------2--|

Gb|--------------------------------------------------------|
Db|--------------------------------------------------------|
Ab|----------------------------------3p2----------3--2--0--|
Eb|-2---2-2----2---2-2----2-2---2-2------2-2--2-2----------|

Gb|-----------------------------------------------------------------------|
Db|-----------------------------------------------------------------------|
Ab|-------------2-4--------------3p2----------3/4/3--------------3p2p0----|
Eb|-2-2--2-2-2------0--2--2-2-2------2--2-2-2-------2--2--2-2-2--------2--|


Chorus

Gb|---------------------------------------------------------------------------------------|
Db|-----------2-2-4-4-4-4-------4-4-4-4-4-4--4-4-4-4-4-4--4-4-4-4--2h4--------------------|
Ab|---------------------------------------------------------------------2-----------9--7--|
Eb|-2--2-2-2--------------2--2---------------------------------------------2----2/9-------|


Verse

Gb|----------------------------------------------------------------------|
Db|----------------------------------------------------------------------|
Ab|--------------------------2-4--------------2-4--------------4p2-------|
Eb|-2-2--2-2-2---2-2--2-2-2------0--2--2-2-2------0--2--2-2-2------2--0--|

Gb|-----------------------------------------------------------------------------------------|
Db|----------4-4-4-----------------4-4-4-----------------4-4-4-----------------4-4----------|
Ab|----------------0-2-------------------2-4-------------------2-4-----------------3p2------|
Eb|-2--2-2-2-----------0--2--2-2-2-----------0--2--2-2-2-----------0--2--2-2-2---------2--0-|

Gb|-----------------------------------------------------------------------|
Db|-----------------------------------------------------------------------|
Ab|-----------4---------------4-2--------------4-2--------------4p2-------|
Eb|-2--2-2-2-----0--2--2-2-2------0--2--2-2-2------0--2--2-2-2------2--0--|

Gb|----------------------------------------------------------------|
Db|----4-4-4---------4-4-4---------------4-4-4-------4-4-4---------|
Ab|-----------2-x-----------3p2-----------------------------3p2----|
Eb|-2-------------2-------------2--0--2-----------2-------------2--|

Gb|------------------------------------------------------------------------------|
Db|----4-4-4---------------4-4-4---------------4-4-4-----------4-4-4-------------|
Ab|------------------0------------2p0-----------------3--4------------3p2-0---0--|
Eb|-2---------0h2-2-----2-------------2--0--2---------------2---------------2----|

Gb|---------------------------------------------------------------------------------|
Db|----4-4-4-4---------------4-4-4-------------4-4-4------2--4----4-4-4-------------|
Ab|------------3p2-0---0------------3p2---------------2h4----------------3p2-0------|
Eb|-2----------------2----2-------------2-0-2------------------2----------------0---|

Gb|---------------------------------------------------------|
Db|---------------------------------------------------x-----|
Ab|----------------------3------------3------------x-----x--|
Eb|-0--0-0-0---2--2-2-2-----2--2-2-2-----2--2-2-2-----------|

Gb|-----------------------------------------------------------------------------|
Db|-----------------------------------------------------------------------------|
Ab|-------------------------------3p2------------------3-3-----------3p2--0-----|
Eb|-2--2-2-2--2/9-2--0--2--2-2-2------2--0--2--2-2-2-------2--2-2-2----------0--|


Chorus

Gb|---------------------------------------------------------------------------------|
Db|-----------2-2-4-4-4-4---------4-4-4-4-4-4--4-4-4-4-4-4--4-4-4-4-----------------|
Ab|---------------------------------------------------------------------------------|
Eb|-2--2-2-2--------------2--2--2-----------------------------------2/14/2--2/14/5--|


Verse

Gb|-----------------------------------------------|
Db|-----------------------4-4-4-4-4-----4-4-4-4-4-|
Ab|-----------------------------------------------|
Eb|-2---2-2---2---2-2--2-------------2------------|

Gb|------------2---------------------------2--------|
Db|-------------------------------------------------|
Ab|--------------------------0----------------------|
Eb|-2---2--0h2----2---2--0h2----2---2--0h2----2---2-|


Ending bit with the backing vocals

Gb|--------------------------------------------------------------------|
Db|--------------------------------------------------------------------|
Ab|-9---9------9-----7------0------------------------7--5--0--4--4-4-4-|
Eb|---------9-----9-----10-----9-9-9-9--2---2--2-2-2-------------------|

Gb|----------------------------------------------------------------|
Db|----------------------------------------------------------------|
Ab|--------------7-5-7-4--4-4-4----------------------------------0-|
Eb|-2---2--2-2-2----------------2--2--2-2--2/14-12-10-9--10--9-7---|

Repeat til the end,but end on this note...

Gb|--------|
Db|--------|
Ab|--------|
Eb|-2------|

************************************

| x  Dead note
| h  Hammer-on
| p  Pull-off
| /  Slide up
| \  Slide down

************************************

Almost there ...

Sign in to get your own page with links to favourite songs and more. You are just one click away...

Login with Facebook Login with Google