Log in

One click and you are in

Login with Facebook Login with Google

Why sign up and log in

Guitar Tabs Explorer
Nick Cave And The Bad Seeds bass tabs for Far from me

Far From Me bass tab - Nick Cave And The Bad Seeds

Nick Cave And The Bad Seeds bass tabs for Far from me

Bass tabs

  • Difficulty: Beginner
Tuning: Standard (E A D G)

🎸 Intro:

G|------------------------------------------------------------------------------|
D|---------------------- 0--0---0--3-3-2-2--------------------------------------|
A|---3--3--0-3-3-----3--------------------3-------------------------------------|
E|------------------------------------------------------------------------------|

🎸 Verse 1:

G|------------------------------------------------------------------------------|
D|---------------------- 0--0---0--3-3-2-2--------------------------------------|
A|---3--3--0-3-3-----3--------------------3-------------------------------------|
E|------------------------------------------------------------------------------|

🎸 Chorus:

G|------------------------------------------------------------------------------|
D|---------------------- 0--0---0--3-3-2-2--------------------------------------|
A|---3--3--0-3-3-----3--------------------3-------------------------------------|
E|------------------------------------------------------------------------------|

🎸 Verse 2:

G|------------------------------------------------------------------------------|
D|---------------------- 0--0---0--3-3-2-2--------------------------------------|
A|---3--3--0-3-3-----3--------------------3-------------------------------------|
E|------------------------------------------------------------------------------|

🎸 Chorus:

G|------------------------------------------------------------------------------|
D|---------------------- 0--0---0--3-3-2-2--------------------------------------|
A|---3--3--0-3-3-----3--------------------3-------------------------------------|
E|------------------------------------------------------------------------------|

Almost there ...

Sign in to get your own page with links to favourite songs and more. You are just one click away...

Login with Facebook Login with Google