Log in

One click and you are in

Login with Facebook Login with Google

Why sign up and log in

Guitar Tabs Explorer
Ngọt chords for Vé Đi thiên Đường một chiều ukulele

Vé Đi Thiên Đường Một Chiều Ukulele chords by Ngọt

Ngọt chords for Vé Đi thiên Đường một chiều ukulele

Guitar chords with lyrics

Tuning: G C E A (G C E A)


Verse 1:
 F
Ở đó
   Gbdim      Gm
Trăm ngàn cây số cách xa
  Bb  Bbm F
Em thấy anh không?
   Am7 G#m Gm        C
Đang vẫy tay chào mỗi khi trời sao sáng
Gm       C
 Nhắn tin gửi trao
  F
Từ đây
  Gbdim       Gm
Hai tuần giữa chốn xa hoa
  Bb Bbm F
Anh vẫn vui mà
  Am7 G#m Gm       C
Trừ mỗi khi nghe đóa hoa vô thường
   Gm        C
Trên băng ghế nơi phi trường
  Gm       C
Khi mua vé đi thiên đường

Một mình
      F   Dm  Gm  Gm  C7  C
 |--------0--3--0--0--x--0--1-----1-----3--|
 |--1--3--1-----1-----3-----3--3--0--3--0--|
 |--------0-----2-----2-----2-----0-----0--|
 |--------2-----2-----3-----0-----0-----0--|

Verse 2:
F
 Sau bao năm
Fmaj7     Cm7  F   Bb
   Tình yêu vẫn là thứ kì lạ
Bb    Bbdim Dbdim Edim  Dm
Tình mạnh hơn  cả  lúc gần nhau
  C#maj7 Am    Bb    G
Ta đau mỗi khi mơ về những lời hát


Interlude:
  Gm    Am    Bb    C
|--1-----1---3-----3---5---------7--|
|--3--5------5--6------6---------8--|
|--2---------4---------5---------7--|
|--0---------x---------7--5--7---9--|


Verse 3:
   F
Thầm hứa
  Gbdim       Gm
Bao giờ thấm khá xông xênh
  Bb Bbm F
Ta sẽ bên nhau
  Am7 G#m Gm       C
Tay nắm tay nghe đóa hoa vô thường
   Gm        C
Trên băng ghế nơi phi trường
  Gm        C
Cho hai vé đi thiên đường

Một chiều
      F   Dm  Gm  Gm  C   F
  |--------0--3--0--0--x--0--1-----3-----0--|
  |--1--3--1-----1-----3-----3--3--0--3--1--|
  |--------0-----2-----2-----2-----0-----0--|
  |--------2-----2-----3-----0-----0-----2--|

Almost there ...

Sign in to get your own page with links to favourite songs and more. You are just one click away...

Login with Facebook Login with Google