Log in

One click and you are in

Login with Facebook Login with Google

Why sign up and log in

Guitar Tabs Explorer
New Order bass tabs for Lets go nothing for me

Lets Go Nothing For Me bass tab by New Order

New Order bass tabs for Lets go nothing for me

Bass tabs

Tuning: Standard (E A D G)

Difficulty: Intermediate


Verse 1:
G|-9-12-12-12-9-12-12-14-12-14-12-14|
D|----------------------------------|
A|----------------------------------|
E|----------------------------------|

G|-14-14-14-12-9-9-9-9-14-14-12-9-14-14-12-9-12|
D|---------------------------------------------|
A|---------------------------------------------|
E|---------------------------------------------|

G|9-12-12-12-9-12-12-14-12-14-12-14|
D|---------------------------------|
A|---------------------------------|
E|---------------------------------|

G|-14-14-14-12-9-9--9-9-7-7-7-7-7-7-7|
D|-----------------------------------|
A|-----------------------------------|
E|-----------------------------------|


Chorus 1:
G|-7-9-9-9-7-9-7-5--2-2-5--2--2--5--5-7-7-7-5-7-7-7-9--9--9-9-9--9|
D|----------------------------------------------------------------|
A|----------------------------------------------------------------|
E|----------------------------------------------------------------|

G|-7-9-9-9-7-9-7-5--2-2-5--2--2--5--5-7-7-7-5-7-7-7-9--9--9-9-9--9|
D|----------------------------------------------------------------|
A|----------------------------------------------------------------|
E|----------------------------------------------------------------|

Verse 2 (the "na na na's"):
G|-9-12-12-12-9-12-12-14-12-14-12-14|
D|----------------------------------|
A|----------------------------------|
E|----------------------------------|

G|-14-14-14-12-9-9-9-9-14-14-12-9-9-7|
D|-----------------------------------|
A|-----------------------------------|
E|-----------------------------------|

G|-9-12-12-12-9-12-12-14-12-14-12-14|
D|----------------------------------|
A|----------------------------------|
E|----------------------------------|

G|-14-14-14-12-9-9-9-9-14-14-12-9-14-14-12-9-12|
D|---------------------------------------------|
A|---------------------------------------------|
E|---------------------------------------------|

Before Chorus 2:
G|-7-9-9-9-7-9-7-5--2-2-5--2--2--5--5-7-7-7-5-7-7-7-9--9--9-9-9--9|
D|----------------------------------------------------------------|
A|----------------------------------------------------------------|
E|----------------------------------------------------------------|


Chorus 2:
G|-7-9-9-9-7-9-7-5--2-2-5--2--2--5--5-7-7-7-5-7-7-7-9--9--9-9-9--9|
D|----------------------------------------------------------------|
A|----------------------------------------------------------------|
E|----------------------------------------------------------------|

G|-7-9-9-9-7-9-7-5--2-2-5--2--2--5--5-7-7-7-14-16-17-16-14-12-9--9-9-9|
D|--------------------------------------------------------------------|
A|--------------------------------------------------------------------|
E|--------------------------------------------------------------------|

G|-9-12-12-12-9-12-12-14-12-14-12-14|
D|----------------------------------|
A|----------------------------------|
E|----------------------------------|

G|-14-14-14-12-9-9-9-9-14-14-12-9--9--7|
D|-------------------------------------|
A|-------------------------------------|
E|-------------------------------------|

G|-9-12-12-12-9-12-12-14-12-14-12-14|
D|----------------------------------|
A|----------------------------------|
E|----------------------------------|

G|-14-14-14-12-9-9-9-9-14-14-12-9-14-14-12-9-12|
D|---------------------------------------------|
A|---------------------------------------------|
E|---------------------------------------------|


Chorus 3:

G|-9-12-12-12-9-12-12-14-12-14-12-14|
D|----------------------------------|
A|----------------------------------|
E|----------------------------------|

G|-14-14-14-12-9-9-9-9-14-14-12-9--9--7|
D|-------------------------------------|
A|-------------------------------------|
E|-------------------------------------|

G|-9-12-12-12-9-12-12-14-12-14-12-14|
D|----------------------------------|
A|----------------------------------|
E|----------------------------------|

G|-14-14-14-12-9-9--14-14-14-12-9--14-14-12-9-12-9|
D|------------------------------------------------|
A|------------------------------------------------|
E|------------------------------------------------|

Almost there ...

Sign in to get your own page with links to favourite songs and more. You are just one click away...

Login with Facebook Login with Google