Search tabs and chords

Search for song, artist or band

Log in

One click and you are in

Login with Facebook Login with Google

Why sign up and log in

Guitar Tabs Explorer
New Order bass tabs for Bizarre love triangle

Bizarre Love Triangle bass tab by New Order

New Order bass tabs for Bizarre love triangle

Bass tabs

Verse:
G|-3-3---7-7/10-8-7-8-7---|
D|----3-3-----------------|
A|------------------------| x2
E|------------------------|

G|-3-3/10-10/7-7/10-10-8-7-8-7-|
D|-----------------------------|
A|-----------------------------| x2
E|-----------------------------|
Chorus:
Bssically the same as the first verse part, but you play each note a few more times than in the verse,
listen to the album version to get exact timing.
G|-3-3/10-10/7-7/10-10-8-7-8-7-|
D|-----------------------------|
A|-----------------------------| x2
E|-----------------------------|


Solo:
Play like the chorus, play each note a few more times than you do in the verse, again, listen to the song for
timing
G|-3-3---7-7/10-8-7-8-7---|
D|----3-3-----------------|
A|------------------------| x2
E|------------------------|


Then:
G|-10-8-7-8-5-5-7-8-10-10/3--|
D|---------------------------|
A|---------------------------| x2
E|---------------------------|

G|-3-3---7-7/10-8-7-8-7---|
D|----3-3-----------------|
A|------------------------| x2
E|------------------------|

G|-10-8-7-8-5-5-7-8-10-10/3--|
D|---------------------------|
A|---------------------------| x2
E|---------------------------|


End: (Juat an extra I throw in, played to the beat of the ending drum machines)
G|-3-3-3-3-3-3-3-3-3-3-------|
D|------------------3--------|
A|---------------------------| x2
E|---------------------------|

Bizarre Love Triangle bass tab

New Order bass tabs for Bizarre love triangle "Bizarre Love Triangle" is a single released from New Order's fourth album, "Brotherhood". "Bizarre Love Triangle" was released as a single in 1986.

Almost there ...

Sign in to get your own page with links to favourite songs and more. You are just one click away...

Login with Facebook Login with Google