Log in

One click and you are in

Login with Facebook Login with Google

Why sign up and log in

Guitar Tabs Explorer
New Musik bass tabs for They all run after the carving knife

They All Run After The Carving Knife bass tab by New Musik

New Musik bass tabs for They all run after the carving knife

Bass tabs

Tuning: Standard tuning


Tabbed by: bassm99
E-mail: alanmatthews1966@yahoo.co.uk
Tuning: E, A, D, G

Bass Starts: 0:57


Intro:

G|--------------------------------------------------------------------------|
D|--------------------------------------------------------------------------|
A|-----------33333333-55555555-55555555-(x2)--55555555-55555555-(x1)--------|
E|--33333333----------------------------------------------------------------|


Verse: (Play Twice)

G|--------------------------------------------------------------------------|
D|--------------------------------------------------------------------------|
A|--55555555-55555555-------------------33333333-33333333-------------------|
E|--------------------55555555-55555555-------------------33333333-33333333-|


Chorus:

G|--------------------------------------------------------------------------|
D|--------------------------------------------------------------------------|
A|--55555555-555555-77-88888888---------------------------------------------|
E|------------------------------5555-7777-88888888-33333333-33333333--------|

Repeat Verse:

Repeat Chorus: (Play Twice)

Bridge:

G|--------------------------------------------------------------------------|
D|--------------------------------------------------------------------------|
A|--55555555-55555555----------33333333-(x2)--55555555-55555555-(x2)--------|
E|--------------------33333333----------------------------------------------|

Repeat Verse:

Repeat Chorus: (Play Twice)

Repeat Bridge:


Chorus: (Bass Fades Out to stop at 4:28)

G|--------------------------------------------------------------------------|
D|--------------------------------------------------------------------------|
A|--55555555-555555-77-88888888---------------------------------------------|
E|------------------------------5555-7777-88888888-33333333-33333333-(x4)---|

G|--------------------------------------------------------------------------|
D|--------------------------------------------------------------------------|
A|--55555555-555555-77-88888888---------------------------------------------|
E|------------------------------5555-7777-88888888-33333333-(x1)------------|


Ending: (Synth Bass starts at 4:30 to Fade Out)

G|--------------------------------------------------------------------------|
D|--------------------------------------------------------------------------|
A|--5-5--5-5--3-3------------5-5-(x1)---------------------------------------|
E|-----------------5-5-(x7)-------------------------------------------------|

They All Run After The Carving Knife bass tab

New Musik bass tabs for They all run after the carving knife "They All Run After The Carving Knife" from the album "Anywhere" (1981).

"They All Run After The Carving Knife" is written by Tony Mansfield.

Almost there ...

Sign in to get your own page with links to favourite songs and more. You are just one click away...

Login with Facebook Login with Google