Log in

One click and you are in

Login with Facebook Login with Google

Why sign up and log in

Guitar Tabs Explorer
New Musik bass tabs for On islands

Bass tabs

Tuning: Standard tuning

Tabbed by: bassm99
E-mail: alanmatthews1966@yahoo.co.uk
Tuning: E, A, D, G

Bass Starts: 0:46


Verse:

G|-----------------------------------------------------------------------------|
D|-----------------------------------------------------------------------------|
A|--7-7-7-7-----------7-7-7-7--7-7-7-7--------------5-5-------7-7-7-7--7-7-7-7-|
E|-----------5-5-5-5--------------------5-5--5-5-5-------5-5-------------------|

G|-----------------------------------------------------------------------------|
D|-----------------------------------------------------------------------------|
A|--5-5-5-5-----------7-7-7-7--7-7-7-7--5-5-5-5-----------7-7-7-7--7-7-7-7-----|
E|-----------5-5-5-5-----------------------------5-5-5-5-----------------------|


Instrumental:

G|-----------------------------------------------------------------------------|
D|-----------------------------------------------------------------------------|
A|--7-7-7-7-7-7-7-7-------------------7-7-7-7-7-7-7-7--7-7-7-7-7-7-7-7---------|
E|-------------------5-5-5-5-5-5-5-5-------------------------------------------|

G|-----------------------------------------------------------------------------|
D|-----------------------------------------------------------------------------|
A|-------------------5-5-5-5-----------7-7-7-7-7-7-7-7--7-7-7-7-7-7-7-7--------|
E|--5-5-5-5-5-5-5-5-----------5-5-5-5------------------------------------------|

G|-----------------------------------------------------------------------------|
D|-----------------------------------------------------------------------------|
A|--5-5-5-5-----------7-7-7-7-7-7-7-7--7-7-7-7-7-7-7-7-------------------------|
E|-----------5-5-5-5-----------------------------------------------------------|

G|-----------------------------------------------------------------------------|
D|-----------------------------------------------------------------------------|
A|--5-5-5-5-----------7-7-7-7--7-7-7-7-----------------------------------------|
E|-----------5-5-5-5-----------------------------------------------------------|

Verse:

G|-----------------------------------------------------------------------------|
D|-----------------------------------------------------------------------------|
A|--7-7-7-7-----------7-7-7-7--7-7-7-7-----------5-5---------7-7-7-7--7-7-7-7--|
E|-----------5-5-5-5--------------------5-5-5-5-------5-5-5--------------------|

G|-----------------------------------------------------------------------------|
D|-----------------------------------------------------------------------------|
A|--5-5-5-5-----------7-7-7-7--7-7-7-7--5-5-5-5-----------7-7-7-7--7-7-7-7-----|
E|-----------5-5-5-5-----------------------------5-5-5-5-----------------------|


Chorus:

G|-----------------------------------------------------------------------------|
D|-----------------------------------------------------------------------------|
A|--7-7-7-7-7-7-7-7-------------------7-7-7-7-7-7-7-7--7-7-7-7-7-7-7-7---------|
E|-------------------5-5-5-5-5-5-5-5-------------------------------------------|

G|-----------------------------------------------------------------------------|
D|-----------------------------------------------------------------------------|
A|-------------------5-5-5-5-----------7-7-7-7-7-7-7-7--7-7-7-7-7-7-7-7--------|
E|--5-5-5-5-5-5-5-5-----------5-5-5-5------------------------------------------|

G|-----------------------------------------------------------------------------|
D|-----------------------------------------------------------------------------|
A|--5-5-5-5-----------7-7-7-7-7-7-7-7--7-7-7-7-7-7-7-7-------------------------|
E|-----------5-5-5-5-----------------------------------------------------------|

G|-----------------------------------------------------------------------------|
D|-----------------------------------------------------------------------------|
A|--5-5-5-5-----------7-7-7-7--7-7--9-11---------------------------------------|
E|-----------5-5-5-5-----------------------------------------------------------|


Bridge:

G|-----------------------------------------------------------------------------|
D|-----------------------------------------------------------------------------|
A|--4-4-4-4-4-4-4-4--2-2-2-2-2-2-2-2/--7-7-7-7-7-7-7-7-----------9-11--(x2)----|
E|------------------------------------------------------5-5-5-5----------------|

G|-----------------------------------------------------------------------------|
D|-----------------------------------------------------------------------------|
A|--4-4-4-4-4-4-4-4--2-2-2-2-2-2-2-2--7-7-7-7-7-7-7-7-----------9-11--(x1)-----|
E|-----------------------------------------------------5-5-5-5-----------------|

G|-----------------------------------------------------------------------------|
D|-----------------------------------------------------------------------------|
A|--4-4-4-4-4-4-4-4--2-2-2-2-2-2-2-2/--7-7-7-7-7-7-7-7-----------9-11--(x2)----|
E|------------------------------------------------------5-5-5-5----------------|

End: (Fades Out)

G|-----------------------------------------------------------------------------|
D|-----------------------------------------------------------------------------|
A|--4-4-4-4-4-4-4-4--2-2-2-2-2-2-2-2--7-7-7-7-7-7-7-7--------------------------|
E|-----------------------------------------------------------------------------|

On Islands bass tab

New Musik bass tabs for On islands "On Islands" from the album "From A To B" (1980).

Written by Tony Mansfield.

Almost there ...

Sign in to get your own page with links to favourite songs and more. You are just one click away...

Login with Facebook Login with Google