Log in

One click and you are in

Login with Facebook Login with Google

Why sign up and log in

Guitar Tabs Explorer
New Model Army tabs for Wired

Guitar tabs

Track: Wired
Album: High

Tuning: Standard
As it's a simple song I haven't indicated how many times to play each note or the
structure. Just listen to the song for those.


Intro/Verse part 1

e--------------|
b--------------|
g--------------|
d--9--7--9--7--|
a--9--7--9--7--|
e--7--5--7--5--|


Verse part 2

e--------------|
b--------------|
g--------------|
d--5--7--5--7--|
a--5--7--5--7--|
e--3--5--3--5--|


Chorus

e-----------|
b-----------|
g-----------|
d--7--5--9--|
a--7--5--9--|
e--5--3--7--|


Breakdown

e-----
b-----
g--9--  ** let ring a few times **
d--9--
a--7--
e-----


End

e-------------|
b-------------|
g-------------|
d--7--7-5--9--|
a--7--7-5--9--|

Almost there ...

Sign in to get your own page with links to favourite songs and more. You are just one click away...

Login with Facebook Login with Google