Log in

One click and you are in

Login with Facebook Login with Google

Why sign up and log in

Guitar Tabs Explorer
New Found Glory bass tabs for Youre still the one

You're Still The One bass tab by New Found Glory

New Found Glory bass tabs for Youre still the one

Bass tabs

(You're Still The One)
                                  New Found Glory
                                       ENJOY!
Intro
(no bass)

0:22
{Verse}
|-------------------------------------|-------------------------------------|
|-------------------------------------|-------------------------------------|
|--5-5555-----------------------------|---5-5-5-----------------------------|
|----------2-2222--3-3333--5-5555-----|-----------2-2-2--3-3333--5-5555-----|

{Pre Chorus}
|------------------------------------|
|------------------------------------|
|--5-5555----------------------------|
|----------2-2222--5~----------------|

{Chorus} [X2]
|-------------------------------------|-------------------------------------|
|-------------------------------------|-------------------------------------|
|-5-5-555-----------------------------|-5-5-555-----------------------------|
|----------2-2-222--0-0-000--5-5-555--|----------2-2-222--3-3-333--5-5-555--|

{Solo}
|-------------------------------------|-------------------------------------|
|-------------------------------------|-------------------------------------|
|--5-5555-----------------------------|---5-5555----------------------------|
|----------2-2222--3-3333--5-5555-----|-----------2-2222--3-3333--5-5555----|

{Verse}
|-------------------------------------|-------------------------------------|
|-------------------------------------|-------------------------------------|
|-5-5-555-----------------------------|-5-5-555-----------------------------|
|----------2-2-222--3-3-333--5-5-555--|----------2-2-222--3-3-333--5-5-555--|

{Verse}
|-------------------------------------|-------------------------------------|
|-------------------------------------|-------------------------------------|
|--5-5555-----------------------------|---5-5-5-----------------------------|
|----------2-2222--3-3333--5-5555-----|-----------2-2-2--3-3333--5-5555-----|

{Pre Chorus}
|------------------------------------|
|------------------------------------|
|--5-5555----------------------------|
|----------2-2222--5~----------------|

{Chorus} Slow (2x)
|-------------------------------------|-------------------------------------|
|-------------------------------------|-------------------------------------|
|-5(8x)-------------------------------|-5(8x)-------------------------------|
|----------2(8x)----0(8x)----5(8X)----|----------2(8x)--3(8x)--5(8x)--------|

{Solo)
|---------------------------------------------------------------------------|
|---------------------------------------------------------------------------|
|-5(8x)---------5(8x)---------5(4x)--------5(8x)----------------------------|
|--------3(8x)---------3(8x)---------3(4x)--------3(8x)--5(8x)--------------|

{Chorus} Slow (2x)
|-------------------------------------|-------------------------------------|
|-------------------------------------|-------------------------------------|
|-5(8x)-------------------------------|-5(8x)-------------------------------|
|----------2(8x)----0(8x)----5(8X)----|----------2(8x)--3(8x)--5(8x)--------|

{Outro)
|-----|
|-----|
|-5~--|
|-----|

↓ Add and view comments below ↓

What do you think about this song and these tabs?

Add your comments, questions, rant or a thumbs up below.

Almost there ...

Sign in to get your own page with links to favourite songs and more. You are just one click away...

Login with Facebook Login with Google