Log in

One click and you are in

Login with Facebook Login with Google

Why sign up and log in

Guitar Tabs Explorer
New Found Glory guitar tabs for Your jokes arent funny

Guitar tabs

Intro:

Guitar 1
e|--------------|---------------------------------2x---|
B|--------------|--------------------------------------|
G|-9~-----------|-9~------/14~---\-9~------/14~---13~--|
D|-9~-----------|-9~------/14~---\-9~------/14~---14~--|
A|-7~-----------|-7~------/12~---\-7~------/12~---11~--|
E|--------------|--------------------------------------|
   ^Fade in
Guitar 2 (synth)
e|-12/19~---12/16~-----12/19~---14~-16p14~-16p12~--|
B|-------------------------------------------------|
G|-------------------------------------------------|
D|-------------------------------------------------|
A|-------------------------------------------------|
E|-------------------------------------------------|
Verse 1:

Guitar 1
e|----------------------------------------------------------------------------|
B|----------------------------------------------------------------------------|
G|-9~------/14~---\-9~------/14~---13~---9~------/14~---\-9~------/14~---13~--|
D|-9~------/14~---\-9~------/14~---14~-----------/14~---\---------/14~---14~--|
A|-7~------/12~---\-7~------/12~---11~---7~------/12~---\-7~------/12~---11~--|
E|----------------------------------------------------------------------------|

Guitar 2
e|----------------------------------------------------------------------------|
B|----------------------------------------------------------------------------|
G|----------------------------------------------------------------------------|
D|---------------------------11~----9~---7~--------7~-----11~------11~---14~--|
A|----------------------------------------------------------------------------|
E|----------------------------------------------------------------------------|

Prechorus (00:30):

Guitar 1
e|-------------------------------------|
B|-------------------------------------|
G|-6~~~~~~~~~-2~~~~-------4-4----------|
D|-6~~~~~~~~~-2~~~~-4-4-4-4-4---2~-----|
A|-4~~~~~~~~~-0~~~~-2-2-2-2-2-4--------|
E|--------------------------------------|
                     * * *
Guitar 2, 2x (hard to hear, not 100% accurate)
e|----0~---0-----2~----4~--------0~---0-----2~----4~-----|
B|-2~----2---2~-----2~----2~--2~----2---2~-----2~----4~--|
G|-------------------------------------------------------|
D|-------------------------------------------------------|
A|-------------------------------------------------------|
E|-------------------------------------------------------|

Re-intro:

Guitar 1
e|---------------------------------2x---|
B|--------------------------------------|
G|-9~------/14~---\-9~------/14~---13~--|
D|-9~------/14~---\-9~------/14~---14~--|
A|-7~------/12~---\-7~------/12~---11~--|
E|--------------------------------------|

Guitar 2 (synth)
e|-12/19~---12/16~-----12/19~---14~-16p14~-16p12~--|
B|-------------------------------------------------|
G|-------------------------------------------------|
D|-------------------------------------------------|
A|-------------------------------------------------|
E|-------------------------------------------------|


Verse 2:

Guitar 1
e|--------------------------------------------------------------------------|
B|--------------------------------------------------------------------------|
G|-9~------/14~---\-9~-------------------9~------/14~---\-9~------------9~--|
D|-9~------/14~---\-9~------/11~---9~------------/14~---\---------/9~-------|
A|-7~------/12~---\-7~-------------------7~------/12~---\-7~--------~-------|
E|--------------------------------------------------------------------------|

Guitar 2
e|-------------------------------------------------|
B|-------------------------------------------------|
G|-------------------------------------------------|
D|-9--x8-14--x8-9--x8-14--x4-14--x4----------------|
A|-7-----12-----7-----12-----11--------------------|
E|-------------------------------------------------|
   *     *      *     *      *

Prechorus:


Chorus (both guitars), 2x:
e|--------------------------------------------------|
B|--------------------------------------------------|
G|--------------------------------------------------|
D|--------------------------------------------------|
A|----------------7---------------------9-------6/7-|
E|-0-0-0-0----5-5---5----0-0-0-0----7-7---7-5-5-----|

Re-intro:


Verse 2:

Guitar 1
e|-----------------------------------------------------|
B|-----------------------------------------------------|
G|--------------------------9~----/14~------6~----/9~--|
D|--------------------------------/14~------------/9~--|
A|--------------------------7~----/12~------4~----/7~--|
D|-----------------------------------------------------|

Guitar 2 (w/ delay)
e|-----------------------------------------------------|
B|-----------------------------------------------------|
G|-4-----6-----4-----2---1---4-----6-----4-----2---1---|
D|-6-----7-----6-----4---2---6-----7-----6-----4---2---|
A|-----------------------------------------------------|
D|-----------------------------------------------------|


Chorus:

Pre-solo (both guitars]
e|--------------2x-|
B|-----------------|
G|-----------------|
D|-----------------|
A|-----9-------6/7-|
D|---7---7-5-5-----|


SOLO:

Guitar 1, 2x
e|----------------------------------------------------------------------|
B|----------------------------------------------------------------------|
G|-----------------------------------------------------------2--4-------|
D|---------------------------6-6-6-6-------------6-----4-----2--4-------|
A|-7-----7-----------7-7-7-7---------7-----7-----4--x8-2--x8-0--2-------|
D|-0--x8-5--x8-0--x8-5-5-5-5---------0--x8-5--x8------------------------|

Guitar 2
e|----------------------------|-----------------------|----------------------------|
B|-121212-99999-777---7-9-7---|-121212-99999-777-9999-|-------7-7-7-9-9-------9--7-|
G|------------------9-------9-|-----------------------|-6-6-6----------------------|
D|----------------------------|-----------------------|-----------------9-9-9------|
A|----------------------------|-----------------------|----------------------------|
D|----------------------------|-------------1./3.-----|----------------------2./4.-|

Guitar 1
e|-----------------------------------------------2x-|--------------------------------2x-|
B|--------------------------------------------------|-----------------------------------|
G|--------------------------------------------------|-9-----------9---------------------|
D|--------------------------------------------------|-9--x8-7-----9--x8-----------------|
A|----------------7---------------------9-------6/7-|-7-----7--x8-7---------9-------6/7-|
D|-0-0-0-0----5-5---5----0-0-0-0----7-7---7-5-5-----|-------5-----------7-7---7-5-5-----|

Guitar 2
e|----------------------------------------------------------(0)~------------------------------------|
B|----------------------------------------------------------(0)~------------------------------------|
G|-------------------------------------11-------8/9---------(0)~---------(7.8)~------------------------|
D|----------------------------------9-9---9-7-7-------------(0)~---------------------------------------|
A|-----7-----------7----------7-------------------------7---(0)~------7-----------7---(6.9)~-----------|
D|-0-0---0-----5-5---5----0-0---0-------------------0-0---0-(0)~--5-5---5-----0-0---0-------1~////12~--|

e|-------------------------------2x---|
B|------------------------------------|
G|------------------------------------|
D|------------------------------------|
A|-----------------------9-------6/7--|
D|-0--x8-5--x8-0--x8-7-7---7-5-5------|


Outro:

Guitar 1
e|---------------------------------|----------------------------1.-|-----------------2.-||------------3x-|---|
B|---------------------------------|-------------------------------|--------------------||---------------|---|
G|---------------------------------|-------------------44---2--222-|--------------------||---------------|---|
D|---------------------------------|-------------------44---2--222-|-------11-----------||---------------|-.-|
A|-7-----7-----7--------9------6/7-|-7-----7-----7-----22---0--000-|-7-----9--x8-11-----||---9-------6/7-|-2-|
D|-0--x8-5--x8-0--x8-77---7-55-----|-0--x8-5--x8-0--x8-------------|-0--x8-------9---x8-||-7---7-5-5-----|-0-|

Guitar 2
e|-7~---------------------|-7~------------|---------------------------2.-|------------||-----------------|---|
B|------9~--7~----7-9-7---|-----9~--7~-9~-|-------9-9-9-9-9--------------|-----777-99-||---12----------9-|---|
G|--------------9-------9-|---------------|-----------------4-4---2--222-|-666--------||--------11p9-11.-|---|
D|------------------------|---------------|-9-9-9-----------4-4---2--222-|------------||-9----9----------|---|
A|------------------------|---------------|-----------------2-2---0--000-|------------||-----------------|-.-|
D|------------------------|---------1./3.-|------------------------------|---------4.-||--------------3x-|-0-|

Other versions of Your Jokes Aren't Funny

Your jokes aren't funnyChords

↓ Add and view comments below ↓

What do you think about this song and these tabs?

Add your comments, questions, rant or a thumbs up below.

Almost there ...

Sign in to get your own page with links to favourite songs and more. You are just one click away...

Login with Facebook Login with Google