Log in

One click and you are in

Login with Facebook Login with Google

Why sign up and log in

Guitar Tabs Explorer
New Found Glory guitar tabs for Vegas

Guitar tabs

song: vegas	artist: a new found glory

tabbed by: keith _ herbaa3@hotmail.com


intro riff
e-----------------------------------------------------------------------------
B-----------------------------------------------------------------------------
G-----------------------------------------------------------------------------
D-2-2---6-7-----X 3------11--11--11--7--7--9----------------------------------
A-2-2---6-7--------------11--11--11--7--7--9----------------------------------
E-0-0---4-5--------------9---9---9---5--5--7----------------------------------

verse
e-----------------------------------------------------------------------------
B-----------------------------------------------------------------------------
G-----------------------------------------------------------------------------
D--2-2----X 3------11-11-11--7-7--9-------------------------------------------
A--2-2-------------11-11-11--7-7--9-------------------------------------------
E--0-0-------------9--9--9---5-5--7-------------------------------------------

pm____________________________________________


intro riff


verse


riff over second verse
e-----------------------------------------------------------------------------
B-----------------------------------------------------------------------------
G----9-9----------------------------------------------------------------------
D----9-9---repeat-------------------------------------------------------------
A----7-7----------------------------------------------------------------------
E-----------------------------------------------------------------------------

chorus

e-----------------------------------------------------------------------------
B-----------------------------------------------------------------------------
G-----------------------------------------------------------------------------
D--2-2--7-6-6-7-4-4-6-7-7-6---repeat------------------------------------------
A--2-2--7-6-6-7-4-4-6-7-7-6---------------------------------------------------
E--0-0--5-4-4-5-2-2-4-5-5-4---------------------------------------------------


intro riff


verse


chorus


intro riff


bridge
e----------5*----------------------7*----------5*-----------------------3*-----
B----------5*----------------------7*----------5*-----------------------3*-----
G----------5*----------------------7*----------5*-----------------------3*-----
D--2-2----------2-2----5*----2-2---------2-2--------2-2----5*----2-2-----------
A--2-2----------2-2----5*----2-2---------2-2--------2-2----5*----2-2-----------
E--0-0----------0-0----------0-0---------0-0--------0-0----------0-0-----------


chorus

the end

Almost there ...

Sign in to get your own page with links to favourite songs and more. You are just one click away...

Login with Facebook Login with Google