Log in

One click and you are in

Login with Facebook Login with Google

Why sign up and log in

Guitar Tabs Explorer
New Found Glory guitar tabs for This isnt you

Guitar tabs

Album: Not Without A chord diagramA majorA Fight

e|-----| |----------------------|
B|-----| |----------------------|
G|-----| |-4-44-6-66-8-88-6-66--|
D|--xx-| |-x-xx-x-xx-x-xx-x-xx--|x4\
A|--xx-| |-2-22-4-44-6-66-4-44--|   \
E|--xx-| |----------------------|    |-guitar 1
                                     |
e|------2--------|                   |
B|---------------|  /----------------|-guitar 2
G|--3h4---3h4-1--| /                    starts at
D|---------------|/                        0:10
A|---------------|
E|---------------|

e|-----------------------------------
B|-----------------------------------
G|-----6\4-4----6\444------6\4-4-----
D|--66-6\4-4-22-6\444-4/66-6\4-4-22--
A|--66-4\2-2-22-4\222-4/66-4\2-2-22--
E|--44-------00-------2/44-------00--

e|-------------------------------------------|   -------------------|
B|-------------------------------------------|   -------------------|
G|-------6\4-4----6\444------6\4-4----6\444--|   -------------------|
D|--4/66-6\4-4-22-6\444-4/66-6\4-4-22-6\444--|x4 -44-444-455555555--|
A|--4/66-4\2-2-22-4\222-4/66-4\2-2-22-4\222--|   -44-444-455555555--|
E|--2/44-------00-------2/44-------00--------|   -22-222-233333333--|

e|----------------------|
B|----------------------|
G|-4-44-6-66-8-88-6-66--|
D|-x-xx-x-xx-x-xx-x-xx--|x4\
A|-2-22-4-44-6-66-4-44--|   \
E|----------------------|    |-guitar 1
                             |
e|------2--------|           |
B|---------------|    /------|-guitar 2
G|--3h4---3h4-1--|   /         starts at
D|---------------|x2/            0:52
A|---------------|
E|---------------|

e|-------------------------------------------|   -------------------|
B|-------------------------------------------|   -------------------|
G|-------6\4-4----6\444------6\4-4----6\444--|   -------------------|
D|--4/66-6\4-4-22-6\444-4/66-6\4-4-22-6\444--|x3 -44-444-455555555--|-guitar1
A|--4/66-4\2-2-22-4\222-4/66-4\2-2-22-4\222--|   -44-444-455555555--|  |
E|--2/44-------00-------2/44-------00--------|   -22-222-233333333--|  |
                                                                       |
e|-------------------------------|                                     /
B|-------------------------------|                                    /
G|-------------------------------|                                   /
D|--1313-16p13-13-1111-13p11-9---|x2--------------------------- guitar 2
A|-------------------------------|                             starts
E|-------------------------------|                           at 1:14

e|----------------------|
B|----------------------|
G|-4-44-6-66-8-88-6-66--|
D|-x-xx-x-xx-x-xx-x-xx--|x4\
A|-2-22-4-44-6-66-4-44--|   \
E|----------------------|    |-guitar 1
                             |
e|------2--------|           |
B|---------------|    /------|-guitar 2
G|--3h4---3h4-1--|   /         starts at
D|---------------|x2/           1:27
A|---------------|
E|---------------|

e|----------------------------|    ------------------|
B|------0-----0------0-----0--|    ------0-----0-----|
G|----3-----3---1--3-----3----|    ----3-----3---1~--|
D|--2-----4------------4------|x11 --2-----4---------|
A|----------------------------|    ------------------|
E|----------------------------|    ------------------|

e|---------------------  ---------------------|
B|---------------------  ---------------------|
G|-4-44-6-66-8-88-6-66-  --4-44-6-66-4-4-6-6--|
D|-x-xx-x-xx-x-xx-x-xx x3--x-xx-x-xx-x-x-x-x--|---|-guitar 1
A|-2-22-4-44-6-66-4-44-  --2-22-4-44-2-2-4-4--|   |
E|---------------------  ---------------------|   |
                                                 /
e|------2-----------------------2------|        /
B|-------------------------------------|       /
G|--3h4---3h4-1-------------3h4--------|      /
D|-------------------------------------|-----/guitar 2
A|-------------------------------------|       starts
E|-------------------------------------|        at 2:19

e|----------------------|
B|----------------------|
G|-4-44-6-66-8-88-6-66--|
D|-x-xx-x-xx-x-xx-x-xx--|x4\--guitar 1            guitar 2
A|-2-22-4-44-6-66-4-44--|   \                     starts at 2:28
E|----------------------|    -----------------------------|
                                                          |
e|--------2-----2---   --------2---------------2-----2--| |
B|-------------------   -------------4------------------|/
G|--1-3h4---3h4---3--   -1-3h4---3h4---3-1-3h4---3h4----|
D|-------------------x2 --------------------------------|
A|-------------------   --------------------------------|
E|-------------------   --------------------------------|

e|-----------------------------------|
B|-----------------------------------|
G|-----6\4-4----6\444------6\4-4-----|
D|--66-6\4-4-22-6\444-4/66-6\4-4-22--|
A|--66-4\2-2-22-4\222-4/66-4\2-2-22--|
E|--44-------00-------2/44-------00--|

I now have the strength of a grown man and a little baby.

↓ Add and view comments below ↓

What do you think about this song and these tabs?

Add your comments, questions, rant or a thumbs up below.

Almost there ...

Sign in to get your own page with links to favourite songs and more. You are just one click away...

Login with Facebook Login with Google