Log in

One click and you are in

Login with Facebook Login with Google

Why sign up and log in

Guitar Tabs Explorer
New Found Glory guitar chords for The story so far

Guitar chords with lyrics

The Story So Far by New Found Glory

The 12th track on Sticks and Stones

Tabbed by: Phil Taylor Jr. a.k.a The Great Philipino

Got bored and was playing with the cd. Figured some of
it out but couldn't figure parts of it out. Like a
week or two later, I decided to finish it becuase I
was really annoyed at not being able to find the tab
on olga. So for anyone who also has wanted to play
this song, I give you the tab.

Drop A chord diagramD MajorD tuned
Intro version of the verse:
(I think this is just on the bass though)

e|---------|
B|---------|
G|---------|
D|---------|
A|-3-3-3---|
D|-------3-|


Verse:

e|---------|
B|---------|
G|-5-5-5---|
D|-5-5-5-3-|
A|-3-3-3-3-|
D|-------3-|

Pre-Chorus:

e|-------|
B|-------|
G|-------|
D|-3-3-5-|
A|-3-3-5-|
D|-3-3-5-|

e|----------------------|
B|----------------------|
G|-2--5--5--------5-5---| X3
D|-2--5--5-3--3-3-5-5-5-|
A|-0--3--3-3--3-3-3-3-5-|
D|---------3--3-3-----5-|

e|------------------------------------------|
B|------------------------------------------|
G|-2--5--5-7--7-7-7-7-7-7-7-----------------|
D|-2--5--5-7--7-7-7-7-7-7-7-3-3-3-3-3-3-3-3-|
A|-0--3--3-5--5-5-5-5-5-5-5-3-3-3-3-3-3-3-3-|
D|--------------------------3-3-3-3-3-3-3-3-|


Chorus:

e|-----------------------------------------|
B|-----------------------------------------|
G|-5-5-5-5-------------5-5-5-5-------------|
D|-5-5-5-5-x-x-3-3-x-x-5-5-5-5-x-x-3-3-x-x-|
A|-3-3-3-3-x-x-3-3-x-x-3-3-3-3-x-x-3-3-x-x-|
D|---------x-x-3-3-x-x---------x-x-3-3-x-x-|

e|-----------------------------------------|
B|-----------------------------------------|
G|-2-2-2-2-------------2-2-2-2-------------|
D|-2-2-2-2-x-x-3-3-x-x-2-2-2-2-x-x-5-5-x-x-|
A|-0-0-0-0-x-x-3-3-x-x-0-0-0-0-x-x-5-5-x-x-|
D|---------x-x-3-3-x-x---------x-x-5-5-x-x-|


Bridge:

e|------------|
B|------------|
G|-5--7--2----| X2
D|-5--7--2--5-|
A|-3--5--0--5-|
D|----------5-|


Song order:


Intro x6

Verse x4
Pre x1

Chorus x2

Verse x6
Pre x1

Chorus x4

Bridge x1

Verse x4
Pre x1

Chorus: x4

Verse x1



__________________________________

Other versions of The Story So Far

The story so far acousticTabs

↓ Add and view comments below ↓

What do you think about this song and these chords?

Add your comments, questions, rant or a thumbs up below.

Almost there ...

Sign in to get your own page with links to favourite songs and more. You are just one click away...

Login with Facebook Login with Google