Log in

One click and you are in

Login with Facebook Login with Google

Why sign up and log in

Guitar Tabs Explorer
New Found Glory guitar tabs for The story so far acoustic

Guitar tabs

---------------------------------------------------------------------------------------------------
                            The Story so Far(acoustic)- New Found Glory
---------------------------------------------------------------------------------------------------

Tabbed By:14caiom
Tuning: Standard

The Story so Far(acoustic) - https://www.youtube.com/watch v=plYrzCTTf3w

If theres no second guitar that just means they play he same thing.


[Intro:] (0:00)
e|---------------|
B|---------------|
G|--------0------|  (1x)
D|------2--------|
A|----3-----3----|
E|----------1----|


[Verse:] (0:04)
e|---------------|-------------|
B|---------------|-------------|
G|-------0-------|-------------|
D|-----2---------|-------------|
A|---3-----3-----|----x-5-5-5--|
E|---------1-----|----x-3-3-3--|
      (x9)

2nd Guitar: (0:24)
e|---------------|-------------|
B|---------------|-------------|
G|----0-0-0------|-------------|
D|----2-2-2------|-------------|
A|----3-3-3-3----|---x-3-3-3---|
E|----------1----|---x-1-1-1---|
      (4x)


[Pre-Chorus:] (0:40)

(works well with two note power chords also)

e|--------------------------------------------|-----------------------------------------|
B|--------------------------------------------|-----------------------------------------|
G|--2-2-2-5-x---5-5-5-x----5-5----------------|---2-2-2-5-x---5-5-5--2-2-2-2-2-2-2-2-5--|
D|--2-2-2-5-x---5-5-5-x----5-5-5-5-5-5-5------|---2-2-2-5-x---5-5-5--0-0-0-0-0-0-0-0-3--|
A|--0-0-0-3-x---3-3-3-x----3-3-5-5-5-5-5------|---0-0-0-3-x---3-3-3---------------------|
E|-----------------------------3-3-3-3-3------|-----------------------------------------|
           (x3)


[Chorus:] (0:58)

e|---------------------------------------------------------------------------------------|
B|---------------------------------------------------------------------------------------|
G|--5-5-5-5-x-x----------5-5-5-5-x-x-----------------------------------------------------|
D|--5-5-5-5-x-x--3-3-3---5-5-5-5-x-x--3-3-3---7-7-7-7-x-x--3-3-3---7-7-7-7-x-x--5-5-5----|
A|--3-3-3-3-x-x--3-3-3---3-3-3-3-x-x--3-3-3---7-7-7-7-x-x--3-3-3---7-7-7-7-x-x--5-5-5----|
E|---------------1-1-1----------------1-1-1---5-5-5-5-x-x--1-1-1---5-5-5-5-x-x--3-3-3----|
                                      (x2)


[Verse] (1:13)


[Pre-chorus](1:38)


[Chorus] (1:55)


[Solo:] (2:11)

Guitar 1:

e|-----------------------------------------------------------------------------------------|
B|-----------------------------------------------------------------------------------------|
G|--------12-12-10-10-9-----------9-----------9------12-12-10-10-9---------9---------------|
D|-----10---------------12-10-12-----12-10-12------10-------------12-10-12----12-10-12-10--|
A|--10-------------------------------------------10----------------------------------------|
E|-----------------------------------------------------------------------------------------|
                                       (x2)
Guitar 2:(Continue Chorus)

e|---------------------------------------------------------------------------------------|
B|---------------------------------------------------------------------------------------|
G|--5-5-5-5-x-x----------5-5-5-5-x-x-----------------------------------------------------|
D|--5-5-5-5-x-x--3-3-3---5-5-5-5-x-x--3-3-3---7-7-7-7-x-x--3-3-3---7-7-7-7-x-x--5-5-5----|
A|--3-3-3-3-x-x--3-3-3---3-3-3-3-x-x--3-3-3---7-7-7-7-x-x--3-3-3---7-7-7-7-x-x--5-5-5----|
E|---------------1-1-1----------------1-1-1---5-5-5-5-x-x--1-1-1---5-5-5-5-x-x--3-3-3----|
                                      (x2)



[Bridge:] (2:26)

e|------------------------|
B|------------------------|
G|------------------------|
D|--3-----5-----7-----5---|
A|--3-----5-----7-----5---|
E|--1-----3-----5-----3---|
        (x2)

Guitar 2: (2:34)
e|----------------------------------------------------------------------------|
B|----------------------------------------------------------------------------|
G|----------------------------------------------------------------------------|
D|--3---3-3-3-3-3---3-3-3-3-3---3-3----5---5-5-5-5-5---5-5-5-5-5---5-5--------|
A|--3---3-3-3-3-3---3-3-3-3-3---3-3----5---5-5-5-5-5---5-5-5-5-5---5-5--------|
E|--1---1-1-1-1-1---1-1-1-1-1---1-1----3---3-3-3-3-3---3-3-3-3-3---3-3--------|

e|----------------------------------------------------------------------------|
B|----------------------------------------------------------------------------|
G|----------------------------------------------------------------------------|
D|--7---7-7-7-7-7---7-7-7-7-7---7-7----5---5-5-5-5-5---5-5-5-5-5---5-5--------|
A|--7---7-7-7-7-7---7-7-7-7-7---7-7----5---5-5-5-5-5---5-5-5-5-5---5-5--------|
E|--5---5-5-5-5-5---5-5-5-5-5---5-5----3---3-3-3-3-3---3-3-3-3-3---3-3--------|

Guitar 1: (2:42)

e|-----------------------------|-------------------------|
B|-----------------------------|-------------------------|
G|-----------------------12-12-|------12-12-9------------|
D|----10----9--9----10---12-12-|----10-------12-10-12-10-|
A|-10---10--10-10-10--10-------|--10------------------10-|
E|-----------------------------|-------------------------|

e|------------------------------|----------------------------------|
B|------------------------------|----------------------------------|
G|------------------------12-12-|--9-------------------------------|
D|-----10------10------10-10-10-|---12-10--------10----10---12--10-|
A|--10----10-10--10-10----------|-------------10----10----10-------|
E|------------------------------|----------------------------------|


-Guitar 2 (2:42)-(2:57)
e|---------------|-------------|
B|---------------|-------------|
G|-------0-------|-------------|
D|-----2---------|-------------|
A|---3-----3-----|----x-5-5-5--|
E|---------1-----|----x-3-3-3--|
      (x4)


[Pre-Chorus] (2:57)


[Chorus] (3:15)


[Solo] (3:30)


[End:] (3:46)

Guitar 1:
e|---------------|
B|---------------|
G|-------0-------|
D|-----2---------|
A|---3-----3-----|
E|---------1-----|

Guitar 2:
e|---------------|
B|---------5-----|
G|---------4-----|
D|--------(2)----|
A|---------------|
E|---------------|


************************************

| x    Dead note
| (n)  Ghost note

Other versions of The Story So Far Acoustic

The story so farChords

↓ Add and view comments below ↓

What do you think about this song and these tabs?

Add your comments, questions, rant or a thumbs up below.

Almost there ...

Sign in to get your own page with links to favourite songs and more. You are just one click away...

Login with Facebook Login with Google