Log in

One click and you are in

Login with Facebook Login with Google

Why sign up and log in

Guitar Tabs Explorer
New Found Glory guitar tabs for The sound of two voices

The Sound Of Two Voices tab by New Found Glory

New Found Glory guitar tabs for The sound of two voices

Guitar tabs

Guitar 1 & 2 - Chad Gilbert


Intro:
e|----------------------------------------------------------------------------------------------------------|
B|------------------------------------------------------9~-----------------------------------------9-9-9-10-|
G|-6-6-6-6---7~--9-9-9-9----7~--6-6-6-6---7~--9-9-9-9---9~--9-9-9-9----7~--6-6-6-6---7~--9-9-9-9---9-9-9-9--|
D|-7-7-7-7---7~--9-9-9-9----7~--7-7-7-7---7~--9-9-9-9---9~--9-9-9-9----7~--7-7-7-7---7~--9-9-9-9---9-9-9-9--|
A|-7-7-7-7---9~--11111111---9~--7-7-7-7---9~--11111111------11111111---9~--7-7-7-7---9~--11111111-----------|
D|----------------------------------------------------------------------------------------------------------|
Verse:

Guitar 1
e|----------------------------------------------------------------------------------------|
B|-----------------------------------------------------------------------9~--10~10~10~10~-|
G|-----------------6-6-6-6---7~--9-9-9-9----7~--6-6-6-6---7~--9-9-9-9----9~--9~-9~-9~-9~--|
D|---(pause)-------7-7-7-7---7~--9-9-9-9----7~--7-7-7-7---7~--9-9-9-9----9~--9~-9~-9~-9~--|
A|-----------------7-7-7-7---9~--11111111---9~--7-7-7-7---9~--11111111---11~--------------|
D|----------------------------------------------------------------------------------------|

Guitar 2
e|---------------2x-|
B|------------------|
G|------------------|
D|-----0~-------2~--|
A|---2--------2-----|
D|-5--------5-------|


Chorus:

Guitar 1
e|----------------------------------------------------------------------------|
B|----------------------------------------------------------------------------|
G|-----------------7~-4-4-4-4-4-4-4-4-6~-6-6-6-6-6-6-6-6-6~-7-7-7-7-7-7-7-7---|
D|-7-7-7-7-7-7-7-7------------------------------------------------------------|
A|----------------------------------------------------------------------------|
D|----------------------------------------------------------------------------|
   * * * * * * * *    * * * * * * * *    * * * * * * * *    * * * * * * * *
Guitar 2
e|----0~----------0~----------0~--------0~---------0~---------0~---------0~--------0~--------|
B|-------2~----------0~----------2~--------3~---------2~---------0~---------2~--------3~-----|
G|----------2~--------------------------------2~--------------------2~-------------------6~--|
D|----------------------2~----------2~--------------------2~-------------------2~------------|
A|-------------------------------------------------------------------------------------------|
D|-------------------------------------------------------------------------------------------|

Re-Intro:
e|-----------------------------------------------------------------|
B|--------------------------------------------------------9-9-9-10-|
G|-6-6-6-6---7~--9-9-9-9----7~--6-6-6-6---7~--9-9-9-9-----9-9-9-9--|
D|-7-7-7-7---7~--9-9-9-9----7~--7-7-7-7---7~--9-9-9-9-----9-9-9-9--|
A|-7-7-7-7---9~--11111111---9~--7-7-7-7---9~--11111111-------------|
D|-----------------------------------------------------------------|

Bridge:

Guitar 1
e|--------------------------------2x-|-----------------------|
B|-----------------------------------|-----------------------|
G|-4-----6~-7------------------------|-7-----4~--------------|
D|-4--x8-6~-7--x8-7~-7-----7~-4------|-7--x8-4~-2------2~----|
A|-2-----4~-5-----7~-7--x8-7~-4--x8--|-5-----2~-2--x16-2~----|
D|----------------5~-5-----5~-2------|----------0------0~----|

Guitar 2
e|----------------------------------------------------------------------------------------------------|
B|------------------10~--------------------------10~-----10~--------9~-----10~------9~~~~~~~~-9~~~~/--|
G|-7--x8-9~-------------7~-9~-9-----9~-6-------9-------9----------------------------------------------|
D|----------7~-7~-7--------------x8-------x8----------------------------------------------------------|
A|-------------------------7~-7-----7~-4--------------------------------------------------------------|
D|----------------------------------------------------------------------------------------------------|


Bridge Pt 2:

Guitar 1
e|-------------------------------------------------|
B|-------------------------------------------------|
G|-------------------------------------------------|
D|-2--2-2--2-2--2-4-6-2--4--4-4--4-4--4-6-9-6------|
A|-0--0-0--0-0--0-2-4-0--2--2-2--2-2--2-4-7-4------|
D|-------------------------------------------------|

Guitar 2
e|-------------------------------------------------------------------|
B|----------------5------------------------5----------------------7--|
G|----9-7-6-7-----6-7-6--------9-7-6-7-----6-7-6------------------7--|
D|----------------------7------------------------7-------------------|
A|-------------------------------------------------------------------|
D|-------------------------------------------------------------------|


Chorus (2x):

Guitar 1
e|----------------------------------------------------------------------------|
B|----------------------------------------------------------------------------|
G|-----------------7~-4-4-4-4-4-4-4-4-6~-6-6-6-6-6-6-6-6-6~-7-7-7-7-7-7-7-7---|
D|-7-7-7-7-7-7-7-7------------------------------------------------------------|
A|----------------------------------------------------------------------------|
D|----------------------------------------------------------------------------|
   * * * * * * * *    * * * * * * * *    * * * * * * * *    * * * * * * * *
Guitar 2
e|----0~----------0~----------0~--------0~---------0~---------0~---------0~--------0~--------|
B|-------2~----------0~----------2~--------3~---------2~---------0~---------2~--------3~-----|
G|----------2~--------------------------------2~--------------------2~-------------------6~--|
D|----------------------2~----------2~--------------------2~-------------------2~------------|
A|-------------------------------------------------------------------------------------------|
D|-------------------------------------------------------------------------------------------|


Outro (guitar 1 only):
e|-------------------------------------------------------------------------------------------------------|
B|-------------------------------------------------------9-9-9-10----------------------------------------|
G|-6-6-6-6---7~--9-9-9-9----7~--6-6-6-6---7~--9-9-9-9----9-9-9-9------7~--6-6-6-6-----7~--6-6-6-6----7~--|
D|-7-7-7-7---7~--9-9-9-9----7~--7-7-7-7---7~--9-9-9-9----9-9-9-9------7~--7-7-7-7-----7~--7-7-7-7----7~--|
A|-7-7-7-7---9~--11111111---9~--7-7-7-7---9~--11111111----------------9~--7-7-7-7-----9~--7-7-7-7----9~--|
D|-------------------------------------------------------------------------------------------------------|

↓ Add and view comments below ↓

What do you think about this song and these tabs?

Add your comments, questions, rant or a thumbs up below.

Almost there ...

Sign in to get your own page with links to favourite songs and more. You are just one click away...

Login with Facebook Login with Google