Log in

One click and you are in

Login with Facebook Login with Google

Why sign up and log in

Guitar Tabs Explorer
New Found Glory guitar chords for Stubborn

Guitar chords with lyrics

New Found Glory - Stubborn


Intro:

    A chord diagramB minorBm   A chord diagramD MajorD  A chord diagramB minorBm        A chord diagramD MajorD  A chord diagramE MajorE     A chord diagramA majorA    A chord diagramD MajorD  A chord diagramA majorA    A chord diagramG MajorG    C#m/D A chord diagramA majorA
e|---------------------------------------------------------------------------|
B|---------------------------------------------------------------------------|
G|------------------------------------------------6/7------------------------|
D|--9-9--12-9----9-9--12-14----7-7--12-7----5-x-x-6/7-7----------------------|
A|--9-9--12-9----9-9--12-14----7-7--12-7----5-x-x-4/5-7----------------------|
E|--7-7--10-7----7-7--10-12----5-5--10-5----3-x-x-----5----------------------| x4


Verse:

A chord diagramB minorBm
Visions of red
        A chord diagramA majorA                    A chord diagramG MajorG
I never thought that I could get here
       A chord diagramB minorBm
In the past the pain would blind me
       A chord diagramA majorA                  A chord diagramG MajorG
And at times I d wish you dead
A chord diagramB minorBm                  A chord diagramA majorA                A chord diagramG MajorG
Now I see a picture clearer than the morning
   A chord diagramB minorBm
To you I was a monster
        A chord diagramA majorA           A chord diagramG MajorG
And you had to save yourself

Chorus:
                  A chord diagramD MajorD
For only one more night
   A chord diagramA majorA
To hold you close
   A chord diagramB minorBm                A chord diagramG MajorG
To tell you you were right
 A chord diagramD MajorD      A chord diagramA majorA
Oh, and I ll take all the blame
    A chord diagramG MajorG             A chord diagramD MajorD
For only one more night
   A chord diagramA majorA                  A chord diagramB minorBm            A chord diagramG MajorG
To say what I was too stubborn to before
 A chord diagramD MajorD      A chord diagramA majorA                       D\C#m
Oh, and I ll take all the blame


    A chord diagramB minorBm   A chord diagramD MajorD  A chord diagramB minorBm        A chord diagramD MajorD  A chord diagramE MajorE     A chord diagramA majorA    A chord diagramD MajorD  A chord diagramA majorA    A chord diagramG MajorG    C#m/D A chord diagramA majorA
e|---------------------------------------------------------------------------|
B|---------------------------------------------------------------------------|
G|------------------------------------------------6/7------------------------|
D|--9-9--12-9----9-9--12-14----7-7--12-7----5-x-x-6/7-7----------------------|
A|--9-9--12-9----9-9--12-14----7-7--12-7----5-x-x-4/5-7----------------------|
E|--7-7--10-7----7-7--10-12----5-5--10-5----3-x-x-----5----------------------|
                 Stubborn, I was stubborn,  too stubborn before

    A chord diagramB minorBm   A chord diagramD MajorD  A chord diagramB minorBm        A chord diagramD MajorD  A chord diagramE MajorE     A chord diagramA majorA    A chord diagramD MajorD  A chord diagramA majorA    A chord diagramG MajorG    C#m/D A chord diagramA majorA
e|---------------------------------------------------------------------------|
B|---------------------------------------------------------------------------|
G|------------------------------------------------6/7------------------------|
D|--9-9--12-9----9-9--12-14----7-7--12-7----5-x-x-6/7-7----------------------|
A|--9-9--12-9----9-9--12-14----7-7--12-7----5-x-x-4/5-7----------------------|
E|--7-7--10-7----7-7--10-12----5-5--10-5----3-x-x-----5----------------------|
                 Too stubborn before



Verse:
A chord diagramB minorBm
I left you alone
             A chord diagramA majorA           A chord diagramG MajorG
While I went off into my own world
      A chord diagramB minorBm
Throw up my arms in anger
A chord diagramA majorA                      A chord diagramG MajorG
When you d try to come pull me out
A chord diagramB minorBm                    A chord diagramA majorA                A chord diagramG MajorG
Now I see myself more clearly than the morning
A chord diagramB minorBm
To you I was hopeless
      A chord diagramA majorA             A chord diagramG MajorG
And I had to save myself


                 A chord diagramD MajorD
For only one more night
   A chord diagramA majorA
To hold you close
   A chord diagramB minorBm                A chord diagramG MajorG
To tell you you were right
 A chord diagramD MajorD      A chord diagramA majorA
Oh, and I ll take all the blame
    A chord diagramG MajorG             A chord diagramD MajorD
For only one more night
   A chord diagramA majorA                  A chord diagramB minorBm            A chord diagramG MajorG
To say what I was too stubborn to before
 A chord diagramD MajorD      A chord diagramA majorA                       D\C#m
Oh, and I ll take all the blame


    A chord diagramB minorBm   A chord diagramD MajorD  A chord diagramB minorBm        A chord diagramD MajorD  A chord diagramE MajorE     A chord diagramA majorA    A chord diagramD MajorD  A chord diagramA majorA    A chord diagramG MajorG    C#m/D A chord diagramA majorA
e|---------------------------------------------------------------------------|
B|---------------------------------------------------------------------------|
G|------------------------------------------------6/7------------------------|
D|--9-9--12-9----9-9--12-14----7-7--12-7----5-x-x-6/7-7----------------------|
A|--9-9--12-9----9-9--12-14----7-7--12-7----5-x-x-4/5-7----------------------|
E|--7-7--10-7----7-7--10-12----5-5--10-5----3-x-x-----5----------------------|
                 Stubborn, I was stubborn,  too stubborn before

    A chord diagramB minorBm   A chord diagramD MajorD  A chord diagramB minorBm        A chord diagramD MajorD  A chord diagramE MajorE     A chord diagramA majorA    A chord diagramD MajorD  A chord diagramA majorA    A chord diagramG MajorG    C#m/D A chord diagramA majorA
e|---------------------------------------------------------------------------|
B|---------------------------------------------------------------------------|
G|------------------------------------------------6/7------------------------|
D|--9-9--12-9----9-9--12-14----7-7--12-7----5-x-x-6/7-7----------------------|
A|--9-9--12-9----9-9--12-14----7-7--12-7----5-x-x-4/5-7----------------------|
E|--7-7--10-7----7-7--10-12----5-5--10-5----3-x-x-----5----------------------|
                 Too stubborn before



Break:

e|---------------------------------------------------------------------------|
B|---------------------------------------------------------------------------|
G|---------------------------------------------------------------------------|
D|--9-9-9-9-9-9-9-9-9-9-9-9-9-9-9-9-9-9-9-9-9-9-9-9-9-9-9-9-9-9-9-9-9-9-9-9--|
A|--9-9-x-x-x-x-x-x-x-x-x-x-x-x-x-x-x-x-x-x-x-x-x-x-x-x-x-x-x-x-x-x-x-x-x-x--|
E|--7-7-x-x-x-x-x-x-x-x-x-x-x-x-x-x-x-x-x-x-x-x-x-x-x-x-x-x-x-x-x-x-x-x-x-x--| x2

e|---------------------------------------------------------------------------|
B|---------------------------------------------------------------------------|
G|---------------------------------------------------------------------------|
D|--9-9-9-9-9-9-9-9-9-9-9-9-9-9-9-9-9-9-9-9-9-9-9-9-9-9-9-9-9-9-9-9-9-9-9-9--|
A|--9-9-x-x-x-x-x-x-x-x-x-x-x-x-x-x-x-x-x-9-9-x-x-x-x-x-x-x-x-x-x-x-x-x-x-x--|
E|--7-7-x-x-x-x-x-x-x-x-x-x-x-x-x-x-x-x-x-7-7-x-x-x-x-x-x-x-x-x-x-x-x-x-x-x--| x2


A chord diagramB minorBm
I m not trying to win you back

I m not on my knees

I owe you this much
                                A chord diagramF minorFm  A chord diagramG MajorG  A chord diagramA majorA    A chord diagramB minorBm   A chord diagramF minorFm   A chord diagramG MajorG    A chord diagramA majorA    A chord diagramB minorBm  A chord diagramF minorFm A chord diagramG MajorG A chord diagramA majorA
I m not holding grudges anymore                       Anymore


A chord diagramB minorBm  A chord diagramF minorFm A chord diagramG MajorG A chord diagramA majorA


A chord diagramB minorBm  A chord diagramF minorFm  A chord diagramG MajorG         A chord diagramA majorA        A chord diagramB minorBm
I m not trying to win you back
    A chord diagramF minorFm  A chord diagramG MajorG  A chord diagramA majorA  A chord diagramB minorBm
I m not on my knees
  A chord diagramF minorFm      A chord diagramG MajorG    A chord diagramA majorA
I owe you this much
A chord diagramB minorBm  A chord diagramF minorFm  A chord diagramG MajorG       A chord diagramA majorA
I m not holding grudges anymore


[Solo]
A chord diagramB minorBm                A chord diagramG MajorG  A chord diagramD MajorD  A chord diagramA majorA  A chord diagramB minorBm


    A chord diagramG MajorG             A chord diagramD MajorD
For only one more night
   A chord diagramA majorA
To hold you close
   A chord diagramB minorBm                A chord diagramG MajorG
To tell you you were right
 A chord diagramD MajorD      A chord diagramA majorA
Oh, and I ll take all the blame
    A chord diagramG MajorG             A chord diagramD MajorD
For only one more night
   A chord diagramA majorA                  A chord diagramB minorBm            A chord diagramG MajorG
To say what I was too stubborn to before
 A chord diagramD MajorD      A chord diagramA majorA
Oh, and I ll take all the blame
A chord diagramG MajorG A chord diagramD MajorD             A chord diagramA majorA          A chord diagramB minorBm            A chord diagramG MajorG
Stubborn, I was stubborn, too stubborn before

A chord diagramD MajorD              A chord diagramA majorA    D\C#m
Too stubborn before

    A chord diagramB minorBm   A chord diagramD MajorD  A chord diagramB minorBm        A chord diagramD MajorD  A chord diagramE MajorE     A chord diagramA majorA    A chord diagramD MajorD  A chord diagramA majorA    A chord diagramG MajorG    C#m/D A chord diagramA majorA
e|---------------------------------------------------------------------------|
B|---------------------------------------------------------------------------|
G|------------------------------------------------6/7------------------------|
D|--9-9--12-9----9-9--12-14----7-7--12-7----5-x-x-6/7-7----------------------|
A|--9-9--12-9----9-9--12-14----7-7--12-7----5-x-x-4/5-7----------------------|
E|--7-7--10-7----7-7--10-12----5-5--10-5----3-x-x-----5----------------------|


    A chord diagramB minorBm   A chord diagramD MajorD  A chord diagramB minorBm        A chord diagramD MajorD  A chord diagramE MajorE     A chord diagramA majorA    A chord diagramD MajorD  A chord diagramA majorA    A chord diagramG MajorG    C#m/D A chord diagramA majorA
e|---------------------------------------------------------------------------|
B|---------------------------------------------------------------------------|
G|------------------------------------------------6/7------------------------|
D|--9-9--12-9----9-9--12-14----7-7--12-7----5-x-x-6/7-7----------------------|
A|--9-9--12-9----9-9--12-14----7-7--12-7----5-x-x-4/5-7----------------------|
E|--7-7--10-7----7-7--10-12----5-5--10-5----3-x-x-----5----------------------|


I feel like the verse is played with different chords, but these sound right! Also I hope you understand the
structure of the song, it's kind of hard to transpose rapidly changing powerchords to chords, but yeah... like
the D\C#m is a slide from A chord diagramD MajorD to C#m.
Feel free to ask anything or comment!

↓ Add and view comments below ↓

What do you think about this song and these chords?

Add your comments, questions, rant or a thumbs up below.

Almost there ...

Sign in to get your own page with links to favourite songs and more. You are just one click away...

Login with Facebook Login with Google