Log in

One click and you are in

Login with Facebook Login with Google

Why sign up and log in

Guitar Tabs Explorer
New Found Glory bass tabs for Sincerely me

Bass tabs

G|---------------------------------------------------------------------------|
D|---------45--------45---------4--------------------------------------------|
A|--------------00--------333-------5----------------------------------------|
E|----33---------------------------------------------------------------------|


chorus
G|---------------------------------------------------------------------------|
D|---------------------------------------------------------------------------|
A|--------00---33333333------------------------------------------------------|
E|---33----------------------------------------------------------------------|


Post-chorus
G|---------------------------------------------------------------------------|
D|---------------------------------------------------------------------------|
A|-----------------------33333-----------------------------------------------|
E|---3333---2222---000-------------------------------------------------------|

These tabs I'm pretty sure are accurate and its a great song, its not that
complicated but is pretty fast.Max

Almost there ...

Sign in to get your own page with links to favourite songs and more. You are just one click away...

Login with Facebook Login with Google