Log in

One click and you are in

Login with Facebook Login with Google

Why sign up and log in

Guitar Tabs Explorer
New Found Glory guitar tabs for Short and sweet

Guitar tabs

Tuning: Standard (E A D G B E)

Key: A chord diagramD MajorD

Difficulty: Novice
Intro:

Lead Guitar:
e|----------------------------------------------------------------------------------|
B|-----10-------7-------7---------10-------7-------7---------10-------7-------7-----|
G|---7----9-------9-------9p7---7----9-------9-------9p7---7----9-------9-------9p7-|
D|-7----------7-------7-------7----------7-------7-------7----------7-------7-------|
A|----------------------------------------------------------------------------------|
E|----------------------------------------------------------------------------------|

e|-------------------------------|
B|-----10-------7-------7--------|
G|---7----9-------9-------9p7--7-|
D|-7----------7-------7--------7-|
A|-------------------------------|
E|-------------------------------|


Rythym Guitar:
e|-------------------------------------------------------|
B|-------------------------------------------------------|
G|-7--7----------------------7--7----------------------7-| x2 (start after lead guitar plays lick second time)
D|-7--7-5--5----9-9----5-5-5-7--7-5--5----9-9----7-7-7-7-|
A|-5--5-5--5----9-9----5-5-5-5--5-5--5----9-9----7-7-7-5-|
E|------3--3----7-7----3-3-3------3--3----7-7----5-5-5---|


Verse 1:

e|-----------------------------------------------------------------|
B|-7-7-7-7-5-5-5-5-7-7-7-7-5-5-5-5-7-7-7-7-5-5-5-5-----------------|
G|-7-7-7-7-7-7-7-7-7-7-7-7-7-7-7-7-7-7-7-7-7-7-7-7-----------------|
D|-------------------------------------------------9-9-9-9-7-7-7-7-|
A|-------------------------------------------------9-9-9-9-7-7-7-7-|
E|-------------------------------------------------7-7-7-7-5-5-5-5-|


Chorus:

e|--------------------------------------------------|
B|--------------------------------------------------|
G|-7--7---------------------------------------------|
D|-7--7-5-5-5-5-5--5-9-9-9-9-9--9-7-7-7-7-7--7--7-7-| x4
A|-5--5-5-5-5-5-5--5-9-9-9-9-9--9-7-7-7-7-7--7--7-7-|
E|------3-3-3-3-3--3-7-7-7-7-7--7-5-5-5-5-5--5--5-5-|


Interlude:

Lead Guitar:
e|----------------------------------------------------------|
B|-----10-------7-------7---------10-------7-------7--------|
G|---7----9-------9-------9p7---7----9-------9-------9p7--7-|
D|-7----------7-------7-------7----------7-------7--------7-|
A|----------------------------------------------------------|
E|----------------------------------------------------------|


Rythym Guitar:
e|-------------------------------------------------------|
B|-------------------------------------------------------|
G|-7--7----------------------7--7----------------------7-|
D|-7--7-5--5----9-9----5-5-5-7--7-5--5----9-9----7-7-7-7-| (Let final A chord diagramD5D5 ring out)
A|-5--5-5--5----9-9----5-5-5-5--5-5--5----9-9----7-7-7-5-|
E|------3--3----7-7----3-3-3------3--3----7-7----5-5-5---|


Verse 2:
                 P.M.___________________________________________________________________________
e|-----------------------------------------------------------------------------------------------|
B|-----------------------------------------------------------------------------------------------|
G|---------------7-7-7-7-7-7-7-7-------------------------------------------------7-7-7-7-7-7-7-7-|
D|---------------7-7-7-7-7-7-7-7-5-5-5-5-5-5-5-5-9-9-9-9-9-9-9-9-5-5-5-5-5-5-5-5-7-7-7-7-7-7-7-7-|
A|-(Pick Slide)--5-5-5-5-5-5-5-5-5-5-5-5-5-5-5-5-9-9-9-9-9-9-9-9-5-5-5-5-5-5-5-5-5-5-5-5-5-5-5-5-|
E|-(Pick slide)------------------3-3-3-3-3-3-3-3-7-7-7-7-7-7-7-7-3-3-3-3-3-3-3-3-----------------|

P.M.______________ Release P.M.
e|-------------------------------------------------|
B|-------------------------------------------------|
G|-------------------------------------------------|
D|-5-5-5-5-5-5-5-5-9-9-9-9-9-9-9-9-7-7-7-7-7-7-7-7-|
A|-5-5-5-5-5-5-5-5-9-9-9-9-9-9-9-9-7-7-7-7-7-7-7-7-|
E|-3-3-3-3-3-3-3-3-7-7-7-7-7-7-7-7-5-5-5-5-5-5-5-5-|


Chorus:

e|--------------------------------------------------|
B|--------------------------------------------------|
G|-7--7---------------------------------------------|
D|-7--7-5-5-5-5-5--5-9-9-9-9-9--9-7-7-7-7-7--7--7-7-| x4
A|-5--5-5-5-5-5-5--5-9-9-9-9-9--9-7-7-7-7-7--7--7-7-|
E|------3-3-3-3-3--3-7-7-7-7-7--7-5-5-5-5-5--5--5-5-|


Bridge:

Lead Guitar:
e|-----------------------------------------------------------|
B|-----------------------------------------10-----10---------|
G|-11-12-14-12-11~---11-12-14-12-11~---9-7----6-7------------|
D|-----------------------------------------------------------|
A|-----------------------------------------------------------|
E|-----------------------------------------------------------|

e|------------------------------------------14---------------|
B|----------------------------------14b-14b----15------------|
G|-11-12-14-12-11~---11-12-14-12-11~-------------------------|
D|-----------------------------------------------------------|
A|-----------------------------------------------------------|
E|-----------------------------------------------------------|

e|-----------------------------------------------------------|
B|-12---------------------------------------10--15b-15-------|
G|----11-12-14-12-11~---11-12-14-12-11~-9-7----6-------------|
D|-----------------------------------------------------------|
A|-----------------------------------------------------------|
E|-----------------------------------------------------------|

e|-----------------------------------------------------------|
B|-----------------------------------------15----------15----|
G|-11-12-14-12-11~---11-12-14-12-11~-12-12----12-11-11----11-|
D|-----------------------------------------------------------|
A|-----------------------------------------------------------|
E|-----------------------------------------------------------|

Rythym Guitar:

e|--------------------------------------------------|
B|--------------------------------------------------|
G|-7--7---------------------------------------------|
D|-7--7-5-5-5-5-5--5-9-9-9-9-9--9-7-7-7-7-7--7--7-7-| x3
A|-5--5-5-5-5-5-5--5-9-9-9-9-9--9-7-7-7-7-7--7--7-7-|
E|------3-3-3-3-3--3-7-7-7-7-7--7-5-5-5-5-5--5--5-5-|


e|-------------------------------------------------------------------------|
B|----------------------------------------------------10------7------7-----|
G|-7--7---------------------------------------------7----9------9------9p7-|
D|-7--7-5-5-5-5-5--5-9-9-9-9--9-7-7-7-7-7--7--7-7-7---------7------7-------|
A|-5--5-5-5-5-5-5--5-7-7-7-7--9-7-7-7-7-7--7--7-7--------------------------|
E|------3-3-3-3-3--3-7-7-7-7--7-5-5-5-5-5--5--5-5--------------------------|


Chorus:

e|--------------------------------------------------|
B|--------------------------------------------------|
G|-7--7---------------------------------------------|
D|-7--7-5-5-5-5-5--5-9-9-9-9-9--9-7-7-7-7-7--7--7-7-| x4
A|-5--5-5-5-5-5-5--5-9-9-9-9-9--9-7-7-7-7-7--7--7-7-|
E|------3-3-3-3-3--3-7-7-7-7-7--7-5-5-5-5-5--5--5-5-|


Outro:

Lead Guitar:
e|----------------------------------------------------------------------------------|
B|-----10-------7-------7---------10-------7-------7---------10-------7-------7-----|
G|---7----9-------9-------9p7---7----9-------9-------9p7---7----9-------9-------9p7-|
D|-7----------7-------7-------7----------7-------7-------7----------7-------7-------|
A|----------------------------------------------------------------------------------|
E|----------------------------------------------------------------------------------|

e|----------------------------------------|
B|-----10-------7-------7---------10------|
G|---7----9-------9-------9p7---7----9--7-|
D|-7----------7-------7-------7---------7-|
A|----------------------------------------|
E|----------------------------------------|

Rythym Guitar:
e|--------------------------------------------------|
B|--------------------------------------------------|
G|-7--7---------------------------------------------|
D|-7--7-5-5-5-5-5--5-9-9-9-9-9--9-7-7-7-7-7--7--7-7-| x4
A|-5--5-5-5-5-5-5--5-9-9-9-9-9--9-7-7-7-7-7--7--7-7-|
E|------3-3-3-3-3--3-7-7-7-7-7--7-5-5-5-5-5--5--5-5-|

e|--------------|
B|--------------|
G|-----------7--|
D|-9-9--7-7--7--|
A|-9-9--7-7--5--|
E|-7-7--5-5-----|


************************************

| p  Pull-off
| ~  Vibrato
| b  Bend

************************************

Other versions of Short And Sweet

Short and sweetChords

↓ Add and view comments below ↓

What do you think about this song and these tabs?

Add your comments, questions, rant or a thumbs up below.

Almost there ...

Sign in to get your own page with links to favourite songs and more. You are just one click away...

Login with Facebook Login with Google