Log in

One click and you are in

Login with Facebook Login with Google

Why sign up and log in

Guitar Tabs Explorer
New Found Glory bass tabs for My solution

Bass tabs

Open riff play until words start
G|---------------------------------------------------------------------------|
D|---------------------------------------------------------------------------|
A|--------7----5-------------------------------------------------------------|
E|--5---------------2-3------------------------------------------------------|
Verse play 4 times
G|---------------------------------------------------------------------------|
D|---------------------------------------------------------------------------|
A|--5------------------------------------------------------------------------|
E|------5---3----------------------------------------------------------------|

Then play this twice
G|---------------------------------------------------------------------------|
D|---------------------------------------------------------------------------|
A|-------3-3--------------------------3-3------------------------------------|
E|--1-1-------3---5-5--1-1--3----1-1------3----5-5-5--3--1-------------------|

Pause... Then play this until the verse starts again
G|---------------------------------------------------------------------------|
D|-----2-2-2-3-2-------5-3-2-2-3-2-------------------------------------------|
A|-3-------------3-3---------------3-----------------------------------------|
E|-----------------------------------1---------------------------------------|

And then play this 4 times
G|---------------------------------------------------------------------------|
D|---------------------------------------------------------------------------|
A|---5-----------------------------------------------------------------------|
E|-------5---3---------------------------------------------------------------|

The play this twice
G|---------------------------------------------------------------------------|
D|---------------------------------------------------------------------------|
A|-------3-3-------------------------3-3-------------------------------------|
E|--1-1-------3---5-5--1-1--3---1-1-------3---5-5-5--3-1---------------------|

Then play this
G|---------------------------------------------------------------------------|
D|---------------------------------------------------------------------------|
A|-------7---5---------------------------------------------------------------|
E|---5-----------2-3---------------------------------------------------------|

Pause... Then play this until pause and end with this...
G|---------------------------------------------------------------------------|
D|-----2-2-2-3-2-------5-3-2-2-3-2-------------------------------------------|
A|--3-------------3-3--------------3----------------------3------------------|
E|------------------------------------1--------------------------------------|

Almost there ...

Sign in to get your own page with links to favourite songs and more. You are just one click away...

Login with Facebook Login with Google