Log in

One click and you are in

Login with Facebook Login with Google

Why sign up and log in

Guitar Tabs Explorer
New Found Glory guitar tabs for My heart will go on

Guitar tabs

Album:  From the Screen to Your Stereo (if you don't have it, go buy it)

tabbed by Drew Strobel (strobel9@anewfoundglory.net)

this is my favorite song of nfg's and i sat down last night and forced
myself to figure it out, so here it is.  just listen to the song to figure
out the timing if you are unsure.
Intro
e|---------------------------------------------------------|
B|---------------------------------------------------------|
G|---------------------------------------------------------|
D|-------------------------------9---9--6--------------2---|
A|---7--9--9h11---11--11p9--7--9-----------7-----------2---|
E|----------------------------------------------9--7-/-0---|

e|---------------------------------------------------------|
B|---------------------------------------------------------|
G|-----------------------------------------6--6---4--------|
D|-------------------------------9---6--9------------------|
A|---7--9--9h11---11--11p9--7--9---------------------------|
E|---------------------------------------------------------|


Verse (all palm muted) x2
e|---------------------------------------------------------------------|
B|---------------------------------------------------------------------|
G|---9-9-9-9-9-9-9-9------------------------------------9-9-9----------|
D|---9-9-9-9-9-9-9-9--9-9-9-9-9-9-9-9--7-7-7-7-7-7-7-7--9-9-9--9-9-9---|
A|---7-7-7-7-7-7-7-7--9-9-9-9-9-9-9-9--7-7-7-7-7-7-7-7--7-7-7--9-9-9---|
E|--------------------7-7-7-7-7-7-7-7--5-5-5-5-5-5-5-5---------7-7-7---|

e|-------------------------------------------------------------------|
B|-------------------------------------------------------------------|
G|---9-9-9-9-9-9-9-9-------------------------------------------------|
D|---9-9-9-9-9-9-9-9--9-9-9-9-9-9-9-9--7-7-7-7-7-7-7-7-7-7-7-7-7-7---|
A|---7-7-7-7-7-7-7-7--9-9-9-9-9-9-9-9--7-7-7-7-7-7-7-7-7-7-7-7-7-7---|
E|--------------------7-7-7-7-7-7-7-7--5-5-5-5-5-5-5-5-5-5-5-5-5-5---|

Chorus x2
e|--------------------------------------------------------------------|
B|--------------------------------------------------------------------|
G|---9-9-9-9------------------------------9-9-9-9---------------------|
D|---9-9-9-9--9-9-9-9--7-7-7-7--9-9-9-9---9-9-9-9--9-9-9-9--7-7-7-7---|
A|---7-7-7-7--9-9-9-9--7-7-7-7--9-9-9-9---7-7-7-7--9-9-9-9--7-7-7-7---|
E|------------7-7-7-7--5-5-5-5--7-7-7-7------------7-7-7-7--5-5-5-5---|

e|--------------------|
B|--------------------|
G|----------------9---|
D|---11-11---9-9--9---|
A|---11-11---9-9--7---|
E|----9--9---7-7------|


Verse (palm-muted) x2
e|---------------------------------------------------------------------|
B|---------------------------------------------------------------------|
G|---9-9-9-9-9-9-9-9------------------------------------9-9-9----------|
D|---9-9-9-9-9-9-9-9--9-9-9-9-9-9-9-9--7-7-7-7-7-7-7-7--9-9-9--9-9-9---|
A|---7-7-7-7-7-7-7-7--9-9-9-9-9-9-9-9--7-7-7-7-7-7-7-7--7-7-7--9-9-9---|
E|--------------------7-7-7-7-7-7-7-7--5-5-5-5-5-5-5-5---------7-7-7---|

e|-------------------------------------------------------------------|
B|-------------------------------------------------------------------|
G|---9-9-9-9-9-9-9-9-------------------------------------------------|
D|---9-9-9-9-9-9-9-9--9-9-9-9-9-9-9-9--7-7-7-7-7-7-7-7-7-7-7-7-7-7---|
A|---7-7-7-7-7-7-7-7--9-9-9-9-9-9-9-9--7-7-7-7-7-7-7-7-7-7-7-7-7-7---|
E|--------------------7-7-7-7-7-7-7-7--5-5-5-5-5-5-5-5-5-5-5-5-5-5---|


Chorus x2
e|--------------------------------------------------------------------|
B|--------------------------------------------------------------------|
G|---9-9-9-9------------------------------9-9-9-9---------------------|
D|---9-9-9-9--9-9-9-9--7-7-7-7--9-9-9-9---9-9-9-9--9-9-9-9--7-7-7-7---|
A|---7-7-7-7--9-9-9-9--7-7-7-7--9-9-9-9---7-7-7-7--9-9-9-9--7-7-7-7---|
E|------------7-7-7-7--5-5-5-5--7-7-7-7------------7-7-7-7--5-5-5-5---|

e|--------------------|
B|--------------------|
G|----------------9---|
D|---11-11---9-9--9---|
A|---11-11---9-9--7---|
E|----9--9---7-7------|


Bridge (palm-muted)
e|-------------------------------------|
B|-------------------------------------|
G|---9-9-9-9-9-9-9-9-9-9-9-9-9-9-9-9---|
D|---9-9-9-9-9-9-9-9-9-9-9-9-9-9-9-9---|
A|---7-7-7-7-7-7-7-7-7-7-7-7-7-7-7-7---|
E|-------------------------------------|


Solo (pretty fast) x2
e|---------------------------------------------------------|
B|---------------------------------------------------------|
G|---------------------------------------------------------|
D|-------------------------------9---9--6--------------2---|
A|---7--9--9h11---11--11p9--7--9-----------7-----------2---|
E|----------------------------------------------9--7-/-0---|

e|---------------------------------------------------------|
B|---------------------------------------------------------|
G|-----------------------------------------6--6---4--------|
D|-------------------------------9---6--9------------------|
A|---7--9--9h11---11--11p9--7--9---------------------------|
E|---------------------------------------------------------|


Chorus x2
e|--------------------------------------------------------------------|
B|--------------------------------------------------------------------|
G|---9-9-9-9------------------------------9-9-9-9---------------------|
D|---9-9-9-9--9-9-9-9--7-7-7-7--9-9-9-9---9-9-9-9--9-9-9-9--7-7-7-7---|
A|---7-7-7-7--9-9-9-9--7-7-7-7--9-9-9-9---7-7-7-7--9-9-9-9--7-7-7-7---|
E|------------7-7-7-7--5-5-5-5--7-7-7-7------------7-7-7-7--5-5-5-5---|

e|--------------------|
B|--------------------|
G|----------------9---|
D|---11-11---9-9--9---|
A|---11-11---9-9--7---|
E|----9--9---7-7------|


Outro (slow)
e|---------------------------------------------------------|
B|---------------------------------------------------------|
G|---------------------------------------------------------|
D|-------------------------------9---9--6--------------2---|
A|---7--9--9h11---11--11p9--7--9-----------7-----------2---|
E|----------------------------------------------9--7-/-0---|

↓ Add and view comments below ↓

What do you think about this song and these tabs?

Add your comments, questions, rant or a thumbs up below.

Almost there ...

Sign in to get your own page with links to favourite songs and more. You are just one click away...

Login with Facebook Login with Google