Log in

One click and you are in

Login with Facebook Login with Google

Why sign up and log in

Guitar Tabs Explorer
New Found Glory guitar tabs for My friends over you

Guitar tabs

main riff

|--5----5-7--5-------5------5-7--5---------------
|----7---------7-7-----7-7----------7-7-7--------
|------------------------------------------------
|------------------------------------------------
|------------------------------------------------
|------------------------------------------------

intro

|------------------------------------------------
|------------------------------------------------
|------------------------------------------------
|---77---77----7---------------------------------
|---55---55----5---------------------------------
|------------------------------------------------

         pm


|------------------------------------------------
|------------------------------------------------
|------------------------------------------------
|------------------------------------------------
|---55---55---5---------------------------------- (let the last note ring)
|---33---33---3----------------------------------

         pm


|------------------------------------------------
|------------------------------------------------
|------------------------------------------------
|------------------------------------------------
|--22-----4--55--4-------------------------------
|--00--0--2--33--2-------------------------------

its my fault that it falled apart .....

(go back to intro)


|------------------------------------------------
|------------------------------------------------
|------------------------------------------------
|------------------------------------------------
|----77777---------------------------------------
|----55555---------------------------------------

to lead you on.....


|------------------------------------------------
|------------------------------------------------
|------------------------------------------------
|--------77777777--------------------------------
|--------55555555----55555555--------------------
|--------------------33333333--------------------

you... you're everything i've wanted



|------------------------------------------------
|------------------------------------------------
|------------------------------------------------
|--44444444--------------------------------------
|--22222222----55555555--------------------------
|--------------33333333--------------------------


there's no room left ....


|------------------------------------------------
|------------------------------------------------
|------------------------------------------------
|------------------------------------------------
|--5-5-4-4-2-2-7---------------------------------
|--3-3-2-2-0-0-5----------------------------------


i swear ......



inter lude

|------------------------------------------------------------
|------------------------------------------------------------
|------7---------------4------------4------------4-----------
|------x----4----5-----x---4---5----x---4---5----x----7--5---
|------5----x----x-----2---x---x----2---x---x----2----x--x---
|-----------2----3---------2---3--------2---3---------5--3---


|------------------------------------------
|------------------------------------------
|------------------------------------------
|------------------------------------------
|----5---------5---5-----------------------
|----0---0-0---2---3-----------------------

just maybe....


There you go this are all the cords of the song, they are not in oder
but this is a very easy song so i hope you can plug them into the song

Other versions of My Friends Over You

My friends over youChords

↓ Add and view comments below ↓

What do you think about this song and these tabs?

Add your comments, questions, rant or a thumbs up below.

Almost there ...

Sign in to get your own page with links to favourite songs and more. You are just one click away...

Login with Facebook Login with Google