Log in

One click and you are in

Login with Facebook Login with Google

Why sign up and log in

Guitar Tabs Explorer
New Found Glory guitar tabs for Its been a summer

Guitar tabs with lyrics

*************************************
     *Band: New Found Glory*
     *Album: Sticks and Stones*
     *Tabbed By: ZachW (zachw44@msn.com)*
    *************************************
Intro
Guitar 1-Drop A chord diagramD MajorD Tuning
Guitar 2 Same 7 Seconds Into The Song
-|----------------------------------------------------
-|----------------------------------------------------
-|----------------------------------------------------
-|----------------------------------------------------
-|------------55555555--0-2224--000-2-----------------
-|--00000000--------------------------5555-4-2--4-----


Verse
Guitar 1
-|--------------------------------------------------------
-|--------------------------------------------------------
-|--------------------------------------------------------
-|-0------------------------------------------------------
-|-0------------------------------------------------------
-|-0------------------------------------------------------
  Play this throughout verse palm muted (sometimes open)
  im cracked from my head down to my spine

Guitar 2                                       2X
-|------------------------------------------------------
-|------------------------------------------------------
-|------------------------------------------------------
-|--77-55-44-22-44-55-44-00-----------------------------
-|------------------------------------------------------
-|------------------------------------------------------
  pm all this
  and im trying to convince myself

Chorus
Both Guitars
-|---------------------------------------------
-|---------------------------------------------
-|---------------------------------------------
-|-00-X----22-X---55555555---------------------
-|-00-X----22-X---55555555------repeat---------
-|-00-X----22-X---55555555---------------------
  its burning up in here

Interlude
Guitar 1 (2:46)
-|-----|----|-------------------------------------
-|-----|----|-------------------------------------
-|-----|----|---2---2-----------------------------
-|---2-|--2-|--2-2-2-2----------------------------
-|--2-2|-2-2|-0-----------------------------------
-|-2---|4---|-------------------------------------
 this part is probably wrong but it sounds ok playing along with the song

This is a cool song.If you dont have the album go get it!
Comments? Questions?
zachw44@msn.com

↓ Add and view comments below ↓

What do you think about this song and these tabs?

Add your comments, questions, rant or a thumbs up below.

Almost there ...

Sign in to get your own page with links to favourite songs and more. You are just one click away...

Login with Facebook Login with Google