Log in

One click and you are in

Login with Facebook Login with Google

Why sign up and log in

Guitar Tabs Explorer
New Found Glory bass tabs for Ill never love again

Ill Never Love Again bass tab by New Found Glory

New Found Glory bass tabs for Ill never love again

Bass tabs with lyrics

I will include the lead intro riff on guitar as a bonus. Enjoy! -Higgins

Album: Not Without A Fight (Track 7)
Bassist: Ian Grushka
Tabbed By: Higgins
E-mail: metallicaguy213@hotmail.com
Tuning: Drop D (DADG)

GUITAR RIFF BONUS: NOT BASS! (0:00-0:04)
E|-----------------------|
B|--3--23--23--23--23----|
G|---24--24--24--24--24--|
D|-----------------------|
A|-----------------------|
D|-----------------------|

Bass starts here! Intro/Verse(0:05-0:32) Play 3 times.
G|---------------------------------------------|---------------------|
D|---------------------------------------------|---------------------|
A|---------------------------------------------|-----55555-55-5575---|
D|-0--5h777-4h555-0--5h777-4h555-0--5h777-4h555|-0000----------------|


Ending on third time. (0:33-0:35)
G|---------------------|
D|---------------------|
A|-----55555-55-55-----|
D|-0000----------------|


Chorus(0:36-0:46)
G|-------------------------------------------------------------------|
D|-------------------------------------------------------------------|
A|-------------------------------------------------------------------|
D|-5h7-00000000-5h7-00000000-5h7-00000000-5h7-000000-----------------|

Intro/Verse x1 (0:47-0:56)


Verse Variation x1 (0:57-1:06) (Mostly Vocal and Drum)
G|---------------------------------------------|---------------------|
D|---------------------------------------------|---------------------|
A|---------------------------------------------|-----55555-55-5575---|
D|-0--------------0--5h777-4h555--0------------|-0000----------------|


Intro/Verse x1 with the third ending. (1:07-1:17)


Chorus x2 (1:18-1:38)


Bridge x1 (1:39-1:53)
G|-------------------------------------------------------------------|
D|-------------------------------------------------------------------|
A|-------------------------------------------------------------------|
D|-0000--0000--0000--0000--0000--0000--0000--0000--0000--0h4h55-5p4p2|

Bride Continued x1 (1:54-2:03)
G|-------------------------------------------------------------------|
D|-------------------------------------------------------------------|
A|-------------------------------------555---------------------------|
D|-0000--0000--4-5-7~-----0000857-----0------------------------------|


Chorus x2 (2:04-2:24)


Intro x1(2:25-2:38)


Thats it! Awesome song. Please leave feedback, positive or negative.

| /  slide up
| \  slide down
| h  hammer-on
| p  pull-off
| ~  vibrato
| +  harmonic

↓ Add and view comments below ↓

What do you think about this song and these tabs?

Add your comments, questions, rant or a thumbs up below.

Almost there ...

Sign in to get your own page with links to favourite songs and more. You are just one click away...

Login with Facebook Login with Google