Log in

One click and you are in

Login with Facebook Login with Google

Why sign up and log in

Guitar Tabs Explorer
New Found Glory guitar chords for Eyesore

Guitar chords

New Found Glory
Eyesore ^Ö Track 6
Off of the Self Titled Album "New Found Glory"

Transcribed By: Billy Shields
Intro/Verse: "forget me not..."
e|--------------------------------------------------------------------|
B|--------------------------------------------------------------------|
G|-----------6--4-----------------------------------------------------|
D|---7---4---6--4-----------------------------------------------------|
A|---7---4---4--2-----------------------------------------------------|
E|---5---2------------------------------------------------------------|


Pre-chorus: "say your name"
e|--------------------------------------------------------------------|
B|--------------------------------------------------------------------|
G|--6 --7-------------------------------------------------------------|
D|--6 --7---7---2-----------------------------------------------------|
A|--4 --5---7---2-----------------------------------------------------|
E|----------5---0-----------------------------------------------------|


Chorus: "play on..."
e|--------------------------------------------------------------------|
B|--------------------------------------------------------------------|
G|------7------7------------------------------------------------------|
D|---7--7---4--7------------------------------------------------------|
A|---7--5---4--5------------------------------------------------------|
E|---5------2---------------------------------------------------------|

 

Fill: (play the following slowly...just jam it out!)

e|--------------------------------------------------------------------|
B|--------------------------------------------------------------------|
G|---------------6----4-----------------------------------------------|
D|---7-----4-----6----4-----------------------------------------------|
A|---7-----4-----4----2-----------------------------------------------|
E|---5-----2----------------------------------------------------------|

Solo:
e|--------------------------------------------------------------------|
B|--------------------------------------------------------------------|
G|--------77x---------77x----------------7---Pick---------Pick-----7--|
D|---77x-^×77x----44x^×-77x-----77x--------7---Slide---4----Slide----5--|
A|---77x^×-55x----44x^×-55x-----77x--------5-----------4----Again----5--|
E|---55x---------22x----------55x--------------------2----------------|

x= up and down palm mute

 


Intro/Verse x 3


Pre-chorus x 2


Chorus x 4

Pick Slide and very soft Verse


Pre-chorus x 2


Chorus x 4

Fill x 2


Pre-chorus x 2


Solo


Chorus x 4

 

***This is all my own work. I saw them play this just recently at their concert and they played it the exact same as it was played on the album.***

Long Live Punk and Emo

Other versions of Eyesore

EyesoreTabs

↓ Add and view comments below ↓

What do you think about this song and these chords?

Add your comments, questions, rant or a thumbs up below.

Almost there ...

Sign in to get your own page with links to favourite songs and more. You are just one click away...

Login with Facebook Login with Google