Log in

One click and you are in

Login with Facebook Login with Google

Why sign up and log in

Guitar Tabs Explorer
New Found Glory bass tabs for Dumped

Bass tabs

Tuning - Standard

           Intro - Drums/Bass
G|-------------------------------------------------------------------|
D|-----------------3-------------------------------3-----------------|
A|-----3-3-3-\---------5-5-5-\---------3-3-3-\---------5-5-5-\-------|
E|-3---------------------------3-3-3---------------------------3---3-|

            Intro Part II
G|----------------------------------------------------------------|
D|-------------3-------------------------------3------------------|
A|-3-3-3-----------5-5-5-----------3-3-3-----------5-5-5----------|
E|-----------------------------3---------------------------3---3--|

             Verse
G|-----------------------------------------------------------------|
D|o-------------3-------------------------------3------------------| X3
A|o-3-3-3-----------5-5-5-----------3-3-3-----------5-5-5----------|
E|------------------------------3---------------------------3---3--|

            Verse Part II
G|-----------------------------------------------------------------|
D|-------------3---------------------------------------------------|
A|-3-3-3-----------5-5-5-----------3-3-3-------7---8-8-8-7-7-7-5-5-|
E|-----------------------------3-----------------------------------|

             Pre Chorus
G|-----------------------------------------------------------------|
D|-----------------------------------------------2-----------------|
A|-----------------------------0-2-3---3---3---3---0-0-0-0-0-0-0-0-|
E|-1---1---1---1---3-3-3-3-3-3-------------------------------------|

G|-------------------|
D|-3---3---3-3-3-3---|
A|-------------------|
E|-----------------3-|

             Chorus
G|-----------------------------------------------------------------|
D|-----------------------------------------------------------------|
A|-3-3-3-3-3-3-3-3-----------------3-3-3-3-3-3-3-3-----------------|
E|-----------------1-1-1-1-3-3-3-3-----------------1-1-1-1-3-3-3-3-|

G|------------------------------------------------------------|
D|------------------------------------------------------------|
A|-3-3-3-3-3-3-3-3-----------------3-3-3-3-3-3-3-3---------5--|
E|-----------------1-1-1-1-3-3-3-3-----------------1----------|

Repeat Intro II - X1
Repeat Verse - X1
Repeat Verse Part II - X1

             Second Pre Chorus
G|-----------------------------------------------------------------|
D|-----------------------------------------------2-----------------|
A|-----------------------------0-2-3---3---3---3---0-0-0-0-0-0-0-0-|
E|-1---1---1---1---3-3-3-3-3-3-------------------------------------|

G|---------------------------------|
D|-3---3---3-2-0-------------------|
A|---------------3-----------------|
E|-----------------3---------------|

              Second Chorus
G|-----------------------------------------------------------------|
D|-----------------------------------------------------------------|
A|-3-3-3-3-3-3-3-3-----------------3-3-3-3-3-3-3-3-----------------|
E|-----------------1-1-1-1-3-3-3-3-----------------1-1-1-1-3-3-3-3-|

G|-----------------------------------------------------------------|
D|-----------------------------------------------------------------|
A|-3-3-3-3-3-3-3-3-----------------3-3-3-3-3-3-3-3---------5-5-5-5-|
E|-----------------1-1-1-1-3-3-3-3-----------------1-1-1-1---------|

G|-----------------------------------------------------------------|
D|-----------------------------------------------------------------|
A|-3-3-3-3-3-3-3-3-----------------3-3-3-3-3-3-3-3-----------------|
E|-----------------1-1-1-1-3-3-3-3-----------------1-1-1-1-3-3-3-3-|

G|------------------------------------------------------------|
D|------------------------------------------------------------|
A|-3-3-3-3-3-3-3-3-----------------3-3-3-3-3-3-3-3---------5--|
E|-----------------1-1-1-1-3-3-3-3-----------------1----------|

              Bridge
G|-------------------------------------------------5-5-------------|
D|-----------------------------------------------5-----5-5---------|
A|-0-0-0-0-0-0-0-0-0-0-0-0-0-0-0-0-3-3-3-3-3-3-3-----------3-3-3-5-|
E|-----------------------------------------------------------------|

G|-------------------------------------------------5-5-------------|
D|-----------------------------------------------5-----5-5---------|
A|-0-0-0-0-0-0-0-0-0-0-0-0-0---0-2-3-3-3-3-3-3-3-----------3-3-3-3-|
E|---------------------------3-------------------------------------|

G|-----------------------------------------------------------------|
D|-0-0-0-0-0-0-0-0-0-0-0-0-0---0-2-3-3-3-3-3-3-3-3-5-5-5-5-5-5-5-5-|
A|---------------------------3-------------------------------------|
E|-----------------------------------------------------------------|

            Post Chorus
G|----------------------------------------------------------------|
D|-------------3-------------------------------3------------------|
A|-3-3-3-----------5-5-5-----------3-3-3-----------5-5-5----------|
E|-----------------------------3---------------------------3---3--|

G|---------------------------------------------------------------------------------|
D|-------------3---------------------------------------------------5-5-5-5-5-5-5-5-|
A|-3-3-3-----------5-5-5-----------3-3-3-------7---8-8-8-8-8-8-8-8-----------------|
E|-----------------------------3---------------------------------------------------|

              Final Chorus
G|-----------------------------------------------------------------|
D|-----------------------------------------------------------------|
A|-5-5-5-5-5-5-5-5-----------------5-5-5-5-5-5-5-5-----------------|
E|-----------------3-3-3-3-5-5-5-5-----------------3-3-3-3-5-5-5-5-|

G|-----------------------------------------------------------------|
D|-----------------------------------------------------------------|
A|-5-5-5-5-5-5-5-5-----------------5-5-5-5-5-5-5-5---------7-7-7-7-|
E|-----------------3-3-3-3-5-5-5-5-----------------3-3-3-3---------|

G|-----------------------------------------------------------------|
D|-----------------------------------------------------------------|
A|-5-5-5-5-5-5-5-5-----------------5-5-5-5-5-5-5-5-----------------|
E|-----------------3-3-3-3-5-5-5-5-----------------3-3-3-3-5-5-5-5-|

G|------------------------------------------------------------|
D|------------------------------------------------------------|
A|-5-5-5-5-5-5-5-5-----------------5-5-5-5-5-5-5-5---------7--|
E|-----------------3-3-3-3-5-5-5-5-----------------3----------|

             Ending
G|-----------------------------------------------------------------|
D|-----------------------------------------------------------------|
A|-----------------0-0-0-0-0-0-2-3-5---5---5---5-7-2-2-2-2-2-2-2-2-|
E|-3---3---3---3---------------------------------------------------|

G|--------------------|
D|-5---5---5-4--------|
A|-------------7-5-0--|
E|--------------------|

Almost there ...

Sign in to get your own page with links to favourite songs and more. You are just one click away...

Login with Facebook Login with Google