Log in

One click and you are in

Login with Facebook Login with Google

Why sign up and log in

Guitar Tabs Explorer
New Found Glory guitar tabs for Caught in the act

Guitar tabs with lyrics

New Found Glory - Caught In The Act
-----------------------------------------------------------------
Tabbed by: Bair


Tuning: Standard
Main Riff:
e|------------------------------------------|
B|------------------------------------------|
G|------------------------------------------|
D|------------------------------------------| (X3)
A|--7-9-7--------12-11-9--------------------|
E|--------10-9-9----------------------------|


Verse:
e|------------------------------------------|
B|------------------------------------------|
G|--22222222--------------------------------|
D|--22222222--4444--2222--(X8)--------------| (Main Riff 2X)
A|--00000000--4444--2222--------------------| (in background)
E|------------2222--0000--------------------|
"What a waste of regrets and side glances...."


Chorus:
e|--------------------------------------------------|
B|--------------------------------------------------|
G|--2-22--------7-77--9-99--2-22--------7-77--------|
D|--2-22--4-44--7-77--9-99--2-22--4-44--7-77--2-22--| (X2)
A|--0-00--4-44--5-55--7-77--0-00--4-44--5-55--2-22--|
E|--------2-22--------------------2-22--------0-00--|
"Ohh I'm caught in the act, Before tonight lets do something...."

-Then Main Riff (X2)
-Then Verse (X4)
-Then Chorus

Bridge:
e|--------------------------------------------|
B|--------------------------------------------|
G|---------7777--4444---------------99999999--|
D|--444-4--7777--4444--(X3)--444-4--99999999--|
A|--444-4--5555--2222--------444-4--77777777--|
E|--222-2--------------------222-2------------|
"Your inviting curves, never her to cause a scene...."


Solo:
e|---------------------------------------------|
B|---------------------------------------------|
G|---------------------------------------------|
D|------7-9-7------------7-9-7-----------------|
A|----9-------9-7------9-------9-7-------------|
E|--9----------------9-------------7-10-9-7-5--|

e|--------------------------------------------------------|
B|--------------------------------------------------------|
G|--------------------------------------------------------|
D|-----------------11-9-11-----------------------------2--| (Let Ring)
A|-4/6\4---6-7-0-9------------4/6\4--0-4-999-11-9-7-6--2--|
E|-------4------------------4--------------------------0--|

-Then Chorus (X4)

End:
e|------------------------------------------|
B|------------------------------------------|
G|-------2\---------------------------------|
D|--222--2\---------------------------------|
A|--222--0\---------------------------------|
E|--000-------------------------------------|


Lyrics:
--------------------------------------------------------------------
What a waste of regrets and side glances
I should have let it all end to not answer
Using your pain as your way to bring you closer

Oh to bring you closer

Your inviting words never her to cause a scene
I'm just a name till your breath not a feeling
I'm just a patient boy waiting on your mattress
Just a patient boy waiting in the back

Ohh I'm caught in the act
Before tonight lets do something
That we're gonna regret
Gonna regret

Ohh I'm caught in the act
Before tonight lets do something
That we'll never forget
Neve forget

What a waste of high hopes you leveled them out
I think I just might be in the thick of it
Using your body as your way to bring me closer
Come on and bring it closer

Ohh I'm caught in the act
Before tonight lets do something
That we're gonna regret
Gonna regret
Ohh I'm caught in the act
Before tonight lets do something
That we'll never forget
Never forget

Your inviting curves, never her to cause a scene
I'm just a name that you forgot now we're even
A chord diagramA majorA patient boy waiting on your mattress
Just a patient boy waiting in the back

Ohh ohhh I'm caught in the act
Before tonight lets do something
That we'll never never forget
Lets do something that we'll never never forget
Lets do something that we'll never never forget

Ohh I'm caught in the act
Before tonight lets do something
That we're gonna regret
Gonna regret

Ohh I'm caught in the act
Before tonight I'm just a patient
Boy waiting in the back ohh

Caught in the act
Before tonight lets do something
That we're gonna regret gonna regret

Ohh ohhh I'm caught in the act
Before tonight lets do something

↓ Add and view comments below ↓

What do you think about this song and these tabs?

Add your comments, questions, rant or a thumbs up below.

Almost there ...

Sign in to get your own page with links to favourite songs and more. You are just one click away...

Login with Facebook Login with Google