Log in

One click and you are in

Login with Facebook Login with Google

Why sign up and log in

Guitar Tabs Explorer
New Found Glory guitar tabs for Broken sound

Guitar tabs

Album: Nothing Gold Can Stay
 
Standard Tuning        Tabbed by: Dan Fedel

~=let ring       h=hammer on  p=pull off       pm=palm mute 

I'm actually a drummer but I play the guitar on my free time!

This is how the song goes. No doubt about that. Enjoy!

 

[Beginning] with acoustic
|-----3------3----------------------|-----3------3-------------3~---|
|------3--------3-------------------|------3--------3----------3~---|
|----------------0----0-------------|----------------0----0----0~---|
|---2-----2-0--------2--0------0----|---2-----2-0--------2--0--0~---|
|------------------3--------2-------|------------------3-------2~---|

|------------------------3----------|--------------------------3~---|

[Part one]
|----3------3---------------------|----3------3----------------------|
|-----3--------3------------------|-----3--------3-------------------|
|---------------0----0------------|---------------0----0-------------| 2x
|--2-----2-0--------2--0------0---|--2-----2-0--------2--0--------0--|
|-----------------3--------2------|-----------------3----------2-----|
|-----------------------3---------|-------------------------3--------|
 "I wake up..."

[part two]
|---------------------------------|----------------------------------|
|---------------------------------|----------------------------------|
|-----0--------0------------------|-----0--------0-------------------| 2x
|----0--0---0--------0-0-----2p0--|----0--0---0--------0-0-----2p0---|
|--2-----3---------2------0h2-----|--2-----3---------2------0h2------|
|----------------3------3---------|----------------3------3----------|

Repeat part one
Repeat part two

[part three] use distortion
|-------------------------------------------------|
|------pm----------pm----------------------pm-----|
|-9---9-9-9---7---7-7-7--------pm-----5---5-5-5---| 4x
|-9---9-9-9---7---7-7-7---5---5-5-5---5---5-5-5---|
|-7---7-7-7---5---5-5-5---5---5-5-5---3---3-3-3---|
|------pm----------pm-----3---3-3-3--------pm-----|
                               pm
[part four]
|-------------------------------------------------|
|------pm----------pm-----------------------------|
|-4---4-4-4---5---5-5-5--------pm----------pm-----| 4x
|-4---4-4-4---5---5-5-5---5---5-5-5---5---5-5-5---|
|-2---2-2-2---3---3-3-3---5---5-5-5---5---5-5-5---|
|------pm----------pm-----3---3-3-3---3---3-3-3---|
                           pm          pm
Repeat part three

while part three is repeated this is the "solo"
|----------------------|-------------------------|
|----------------------|---------------2-0-------|
|------0-----0---------|-------0-----0----4-0----|
|--2-4---0-4---2-0-----|---2-4---0-4-------------|
|-----------------3----|-------------------------|
|----------------------|-------------------------|

|----------------------|---------------------|
|-------------2-0------|---------------------|
|-----0-----0----4-0---|-------0-----0-0~~---|
|-2-4---0-4------------|---2-4---0-4---------|
|----------------------|---------------------|
|----------------------|---------------------|
end of song

If there are any problems feel free to e-mail me @ Danimalrarr@msn.com

Almost there ...

Sign in to get your own page with links to favourite songs and more. You are just one click away...

Login with Facebook Login with Google