Log in

One click and you are in

Login with Facebook Login with Google

Why sign up and log in

Guitar Tabs Explorer
New Found Glory guitar tabs for Anthem for the unwanted

Guitar tabs with lyrics

ANTHEM FOR THE UNWANTED - NEW FOUND GLORY
-------------------------------------------------------------------------------

Tabbed by: Boris Paskhaver(bigbadb)

Album: Radiosurgery
Tuning: Standard


INTRO (0:01)

  (x3)
e|---------------------------------------------------------------------------|
B|---------------------------------------------------------------------------|
G|--5--5--5-5-5-5----5--5--5-5-5-5-------------------------------------------|
D|--x--x--x-x-x-x----x--x--x-x-x-x----7--7--7-7-7-7----3--3--3-3-3-3---------|
A|--3--3--3-3-3-3----3--3--3-3-3-3----x--x--x-x-x-x----x--x--x-x-x-x---------|
E|------------------------------------5--5--5-5-5-5----1--1--1-1-1-1---------|

On third time, finish with this

e|-----------------------------------------|
B|-----------------------------------------|
G|-----------------------------------------|
D|--7--7--7-7-7-7----3-3-3-3-3-3-3-3-------|
A|--x--x--x-x-x-x----3-3-3-3-3-3-3-3-------|
E|--5--5--5-5-5-5----1-1-1-1-1-1-1-1-------|
                     P.M------------|

BAND KICKS IN (0:18)

  GUITAR ONE
e|---------------------------------------------------------------------------|
B|---------------------------------------------------------------------------|
G|--5-5-5-5-5-5-5-5-5-5-5-5-5-5-5-5------------------------------------------|
D|--5-5-5-5-5-5-5-5-5-5-5-5-5-5-5-5----7-7-7-7-7-7-7-7----3-3-3-3-3-3-3-3----|
A|--3-3-3-3-3-3-3-3-3-3-3-3-3-3-3-3----7-7-7-7-7-7-7-7----3-3-3-3-3-3-3-3----|
E|-------------------------------------5-5-5-5-5-5-5-5----1-1-1-1-1-1-1-1----|

  GUITAR TWO
e|---------------------------------------------------------------------------|
B|---------------------------------------------------------------------------|
G|--9-9-9-9-9-9-7-7-9-9-9-9-9-9-7-7----9-9-9-9-9-9-7-7----5-5-5-5-5-5-5-5----|
D|--x-x-x-x-x-x-x-x-x-x-x-x-x-x-x-x----x-x-x-x-x-x-x-x----x-x-x-x-x-x-x-x----|
A|--7-7-7-7-7-7-5-5-7-7-7-7-7-7-5-5----7-7-7-7-7-7-5-5----3-3-3-3-3-3-3-3----|
E|---------------------------------------------------------------------------|

VERSE ONE (0:30)

e|---------------------------------------------------------------------------|
B|---------------------------------------------------------------------------|
G|--5-5-5----5-5-5-----------------5-5-5----5-5-5----------------------------|
D|--5-5-5----5-5-5--- LEAD RIFF ---5-5-5----5-5-5--- LEAD RIFF --------------|
A|--3-3-3----3-3-3-----------------3-3-3----3-3-3----------------------------|
E|---------------------------------------------------------------------------|
 1   Bury me under                 That this would


PRE-CHORUS (0:43)

  (x3)                                 (x1)
e|------------------------------------|--------------------------------------|
B|------------------------------------|--------------------------------------|
G|------5-----------------------------|------5-------------------------------|
D|------5--------5--------3--------5--|------5------5------------------------|
A|--3-3-3--------5--------3--------5--|--3-3-3------5------------------------|
E|-----------3-3-3----1-1-1----3-3-3--|---------3-3-3------------------------|
    P.M      P.M      P.M      P.M       P.M    P.M
 1  I'm not a smooth talker
 2  My eyes are the wrong color
 3  open up your                          say...


INTRO (0:53)

  (x1)
e|---------------------------------------------------------------------------|
B|---------------------------------------------------------------------------|
G|--5--5--5-5-5-5----5--5--5-5-5-5-------------------------------------------|
D|--x--x--x-x-x-x----x--x--x-x-x-x----7--7--7-7-7-7----3-3-3-3-3-3-3-3-------|
A|--3--3--3-3-3-3----3--3--3-3-3-3----x--x--x-x-x-x----3-3-3-3-3-3-3-3-------|
E|------------------------------------5--5--5-5-5-5----1-1-1-1-1-1-1-1-------|
                                                       P.M------------|
 1    mean it              cause I didn't hear it


CHORUS ONE (0:59)

  (x2)
e|---------------------------------------------------------------------------|
B|---------------------------------------------------------------------------|
G|--5-5-5-5-5-5-5-5-5-5-5-5-5-5-5-5------------------------------------------|
D|--5-5-5-5-5-5-5-5-5-5-5-5-5-5-5-5----7-7-7-7-7-7-7-7----3-3-3-3-3-3-3-3----|
A|--3-3-3-3-3-3-3-3-3-3-3-3-3-3-3-3----7-7-7-7-7-7-7-7----3-3-3-3-3-3-3-3----|
E|-------------------------------------5-5-5-5-5-5-5-5----1-1-1-1-1-1-1-1----|
 1   What did you say as I walked      Did you want me    Did you want me
 2   What did you say as I walked      Did you want me    back?


VERSE TWO (1:11)

  (x1)
e|---------------------------------------------------------------------------|
B|---------------------------------------------------------------------------|
G|--5-5-5----5-5-5-----------------5-5-5----5-5-5----------------------------|
D|--5-5-5----5-5-5--- LEAD RIFF ---5-5-5----5-5-5--- LEAD RIFF --------------|
A|--3-3-3----3-3-3-----------------3-3-3----3-3-3----------------------------|
E|---------------------------------------------------------------------------|
 1  Bury me                        this would end


PRE-CHORUS TWO (0:43)

  (x3)                                 (x1)
e|------------------------------------|--------------------------------------|
B|------------------------------------|--------------------------------------|
G|------5-----------------------------|------5-----------5-------------------|
D|------5--------5--------3--------5--|------5------5----x-- LET RING -------|
A|--3-3-3--------5--------3--------5--|--3-3-3------5----3-------------------|
E|-----------3-3-3----1-1-1----3-3-3--|---------3-3-3------------------------|
    P.M      P.M      P.M      P.M       P.M    P.M
 1  that I was a pushover
 2  pushed me right over the edge
 3  upset? you never                     black but did you


CHORUS TWO (1:35)

  (x4)
e|---------------------------------------------------------------------------|
B|---------------------------------------------------------------------------|
G|--5-5-5-5-5-5-5-5-5-5-5-5-5-5-5-5------------------------------------------|
D|--5-5-5-5-5-5-5-5-5-5-5-5-5-5-5-5----7-7-7-7-7-7-7-7----3-3-3-3-3-3-3-3----|
A|--3-3-3-3-3-3-3-3-3-3-3-3-3-3-3-3----7-7-7-7-7-7-7-7----3-3-3-3-3-3-3-3----|
E|-------------------------------------5-5-5-5-5-5-5-5----1-1-1-1-1-1-1-1----|
 1   What did you say as I walked      Did you want me    Did you want me
 2   What did you say as I walked      Did you want me    back?
 3   If you're having second thoughts  You didn't want    You didn't need
 4   What did you say as I walked      Did you want me    back?


BRIDGE (1:59)

  (x2)
e|---------------------------------------------------------------------------|
B|---------------------------------------------------------------------------|
G|--5------------------------------------------------------------------------|
D|--5----------------3----------------7----------------3-3-3-3-3-3-3-3-------|
A|--3----------------3----------------7----------------3-3-3-3-3-3-3-3-------|
E|-------------------1----------------5----------------1-1-1-1-1-1-1-1-------|
                                                       P.M------------|
 1  I'm amazed       far, we've been  before and my    lost
 1  I'm amazed       far, we've been  before and my    lost, my hope is lost


INTRO (2:11)

  (x4)
e|---------------------------------------------------------------------------|
B|---------------------------------------------------------------------------|
G|--5--5--5-5-5-5----5--5--5-5-5-5-------------------------------------------|
D|--x--x--x-x-x-x----x--x--x-x-x-x----7--7--7-7-7-7----3--3--3-3-3-3---------|
A|--3--3--3-3-3-3----3--3--3-3-3-3----x--x--x-x-x-x----x--x--x-x-x-x---------|
E|------------------------------------5--5--5-5-5-5----1--1--1-1-1-1---------|

On fourth time, finish with this

e|-----------------------------------------|
B|-----------------------------------------|
G|-----------------------------------------|
D|--7--7--7-7-7-7----3-3-3-3-----3-3-------|
A|--x--x--x-x-x-x----3-3-3-3-----3-3-------|
E|--5--5--5-5-5-5----1-1-1-1-----1-1-------|
                     P.M----|    P.M

FINAL CHORUS (2:35)

  (x4)
e|---------------------------------------------------------------------------|
B|---------------------------------------------------------------------------|
G|--5-5-5-5-5-5-5-5-5-5-5-5-5-5-5-5------------------------------------------|
D|--5-5-5-5-5-5-5-5-5-5-5-5-5-5-5-5----7-7-7-7-7-7-7-7----3-3-3-3-3-3-3-3----|
A|--3-3-3-3-3-3-3-3-3-3-3-3-3-3-3-3----7-7-7-7-7-7-7-7----3-3-3-3-3-3-3-3----|
E|-------------------------------------5-5-5-5-5-5-5-5----1-1-1-1-1-1-1-1----|
 1   What did you say as I walked      Did you want me    Did you want me
 2   What did you say as I walked      Did you want me    back?
 3   If you're having second thoughts  You didn't want    You didn't need

On fourth time, finish with this; Guitar Two also comes in with octave riff on last 2 rounds.

e|----------------------------------------|
B|----------------------------------------|
G|----------------------------------------|
D|--7-7-7-7-7-7-7-7----3-3-3-3-3-3-3-3----|
A|--7-7-7-7-7-7-7-7----3-3-3-3-3-3-3-3----|
E|--5-5-5-5-5-5-5-5----1-1-1-1-1-1-1-1----|
                       P.M------------|

END ON (2:59)

e|-----|
B|-----|
G|--5--|
D|--5--|
A|--3--|
E|-----|

Other versions of Anthem For The Unwanted

Anthem for the unwantedChords

↓ Add and view comments below ↓

What do you think about this song and these tabs?

Add your comments, questions, rant or a thumbs up below.

Almost there ...

Sign in to get your own page with links to favourite songs and more. You are just one click away...

Login with Facebook Login with Google