Log in

One click and you are in

Login with Facebook Login with Google

Why sign up and log in

Guitar Tabs Explorer
New Found Glory guitar tabs for Anniversary

Guitar tabs

all sounds ok! just unsure bout the verse

-|----------------------------|-----------|----------------------------------
-|----------------------------|-----------|----------------------------------
-|-333------------------------|-----------|----------------------------------
-|-333--444-444------666-666--|-------4---|----------------------------------
-|-111--222-222--444-444-444--|-------4---|----------------------------------
-|---------------222----------|-------2---|----------------------------------
        .. ..        ..  ..

-|-----------------------|--------------------------------------|------------
-|-----------------------|--------------------------------------|------------
-|----------------4------|------10---11------------10--11--13---|------------
-|-----4--------4---4----|---9---x----x---9---11----x---x---x---|------------
-|---4---4----2-------2--|---x---8----9---x----x----8---9--11---|------------
-|-2-------2-------------|---7------------7----9----------------|------------
 verse        keep plucking                  before chorus

-|-------------------------------------------------|-------------------------
-|-------------------------------------------------|-------------------------
-|-------------------------------------------------|-------------------------
-|------6666--333--4444-------666--333--444-444----|-------------------------
-|-444--4444--111--2222--444--444--111--222-222----|-------------------------
-|-222-------------------222-----------------------|-------------------------
                   chorus               ... ...

-|-------------------------------------------|-----------------------|-------
-|-------------------------------------------|-----------------------|-------
-|-------------------------------------------|-----4--6--4-3---------|-------
-|-------------------------------4444--6666--|-----x--x--x-x--2------|-------
-|-44--44--44-44--44-44-44--44---2222--4444--|-x2--2--4--2-1--2-x16--|-------
-|-22--22--22-22--11-11-11--11---------------|----------------0------|--------
   middle section

-|------------------------------------|--------------------------------------
-|------------------------------------|--------------------------------------
-|----10-11-------15---13---11--13----|--------------------------------------
-|-9---x--x---9----x----x----x---x----|--------------------------------------
-|-x---8--9---x---13---11----9--11----|--------------------------------------
-|-7----------7-----------------------|---------------------------------------
   before last chorus

Almost there ...

Sign in to get your own page with links to favourite songs and more. You are just one click away...

Login with Facebook Login with Google