Log in

One click and you are in

Login with Facebook Login with Google

Why sign up and log in

Guitar Tabs Explorer
New Found Glory guitar tabs for All downhill from here

Guitar tabs

Album:Catalyst
Tab by LisaMc
Intro 1
Guitar 1
|---------------------
|---------------------
|---6/7---------------
|-4-x/x-7-7-11/9--9/7-
|-4-4/5-7-7--x/x--x/x-
|-2-----5-5--9/7--7/5-

Guitar 2
|---------------------
|---------------------
|---9/11-9-9--6/4-4/6-
|-4-x/x--x-x--x-x-x-x-
|-x-7/9--7-7--4/2-2/4-
|-2-------------------


Verse   has some kind of flanger on the palm mute that i cant make wit my acoustic
|-------------------------------------
|-------------------------------------
|----------7-7-7-7--------------------
|-4-4-4-4--7-7-7-7--7-7-7-7--9-9-9-9--
|-4-4-4-4--5-5-5-5--7-7-7-7--9-9-9-9--
|-2-2-2-2-----------5-5-5-5--7-7-7-7--  x4
PM* * * *  * * * *  * * * *  * * * *


Pre-Chorus
|-------------------------------------
|-------------------------------------
|----------7-7-7-7--------------------
|-4-4-4-4--7-7-7-7--7-7-7-7--9-9-9-9--
|-4-4-4-4--5-5-5-5--7-7-7-7--9-9-9-9--
|-2-2-2-2-----------5-5-5-5--7-7-7-7--  x4
on fourth time stop ^ here

Chorus
guitar 1
|-------------------------------------
|-------------------------------------
|----------7-7-7-7--------------------
|-7-7-7-7--7-7-7-7--4-4-4-4--2-2-2-2--
|-7-7-7-7--5-5-5-5--4-4-4-4--2-2-2-2--
|-5-5-5-5-----------2-2-2-2--0-0-0-0--

guitar 2
|------------------------------------------------------
|------------------------------------------------------
|-----7-8-7-9-----7-8-7--------7-8-7-9------7-8-7-9----
|-7h9---------7h9----------7h9----------7h9---------9--
|-----------------------7------------------------------
|------------------------------------------------------


Bridge

|------------------
|------------------
|---6/7------------
|-4-x/x-7-7--11/9--
|-4-4/5-7-7--11/7--
|-2-----5-5--9-/7--

Other versions of All Downhill From Here

All downhill from hereChords

Almost there ...

Sign in to get your own page with links to favourite songs and more. You are just one click away...

Login with Facebook Login with Google