Log in

One click and you are in

Login with Facebook Login with Google

Why sign up and log in

Guitar Tabs Explorer
Nevershoutnever! guitar chords for The summer ep album

The Summer Ep Album chords by Nevershoutnever!

Nevershoutnever! guitar chords for The summer ep album

Guitar chords with lyrics

The Summer - Ep
----------------------------------------------------------------------------
I Had some help putting this together with a few people on UG!
I put them all together so people could just print this off. :D

1. Happy
2. Hummingbird
3. I Just Laugh
4. Simple Enough
5. On The Brightside
6. Losing It
7. Liar Liar (Bonus Track)
8. The Duet (Bonus Track) - I don't have this one yet

----------------------------------------------------------------------------
	                            Happy (Milissa)
----------------------------------------------------------------------------
A chord diagramC majorC
You make me happy whether you know it or not
A chord diagramFF
we should be happy that's what i said from the start
A chord diagramG MajorG
i am so happy knowing you are the one
A chord diagramFF
that i want for the rest of my days
A chord diagramG MajorG
for the rest of my days

your all of my days A chord diagramC majorC

A chord diagramC majorC
your lookin so cool your lookin so fly
A chord diagramFF
i cant deny that when im staring
 A chord diagramFF
you down right dead in the eye
A chord diagramC majorC
i wanna try to be the person you want
A chord diagramC majorC
the person you need
A chord diagramC majorC
its hard to conceive
        A chord diagramG MajorG
that  somebody like you could be with
someone like me

A chord diagramFF
im happy knowing that you are mine
A chord diagramG MajorG
the grass is greener on the other si-ide
A chord diagramC majorC
the more i think the more i wish
              A chord diagramC majorC
that we could lay here for hours and justa reminisce
uhh ooo ooo

CCCCC

A chord diagramC majorC
your lookin so fresh
A chord diagramC majorC
its catching my eye
                                   A chord diagramFF
why oh why did i not see this before
A chord diagramFF
the girl i adore was right in front of me
               A chord diagramC majorC
and now ill take a step back and look in your eye
              A chord diagramG MajorG
and ask why it took so long to see
were meant to be

A chord diagramFF
im happy knowing that you are mine
A chord diagramG MajorG
the grass is greener on the other si-ide
A chord diagramC majorC
the more i think the more i wish
                      A chord diagramC majorC
that we could lay here for hours and justa reminisce
uhh ooo ooo

A chord diagramFF
on the good, the bad, the ugly
A chord diagramC majorC
the smiles ,the laughs, the funny,
A chord diagramFF
or all the things we put each other through
A chord diagramFF
its for you for you for you

A chord diagramC majorC
you make me happy whether you know it or not
A chord diagramFF
we should be happy that's what i said from the start
A chord diagramG MajorG
i am so happy knowing you are the one
A chord diagramFF
that i want for the rest of my days
A chord diagramG MajorG
for the rest of my days

A chord diagramFF
im happy knowing that you are mine
A chord diagramG MajorG
the grass is greener on the other si-ide
A chord diagramC majorC
the more i think the more i wish
              A chord diagramC majorC
that we could lay here for hours and justa reminisce
uhh ooo ooo

----------------------------------------------------------------------------
	                           Hummingbird ( )
----------------------------------------------------------------------------

A chord diagramG MajorG
I like you
A chord diagramG MajorG
Girl you don't got nothing to prove to me
    A chord diagramG MajorG
I know that times have been rough
         A chord diagramG MajorG
For the both of us

          A chord diagramC# minorC#m
But I'll pray for a change

               A chord diagramE minorEm
You see this world has lots to offer
         A chord diagramA majorA
But in time it will go dark,
             A chord diagramE minorEm
And if this love is what we say it is
     A chord diagramA majorA
I'm sure we will go far
             A chord diagramE minorEm
And with a girl as sweet as you
         A chord diagramD MajorD
There's not much else I can do
      A chord diagramE minorEm
But fall for you

A chord diagramG MajorG

      A chord diagramE minorEm
You know that I'm a wreck
        A chord diagramG MajorG
And I know you can't breathe
        A chord diagramG MajorG
At the edge of my seat with each word
         A chord diagramE minorEm
As the months turn into years
       A chord diagramE minorEm
Just know that I will wait... here,
     A chord diagramG MajorG
For you

           A chord diagramC# minorC#m
Cause I prayed for a change

               A chord diagramE minorEm
You see this world has lots to offer
         A chord diagramA majorA
But in time it will go dark,
             A chord diagramE minorEm
And if this love is what we say it is
     A chord diagramA majorA
I'm sure we will go far
             A chord diagramE minorEm
And with a girl as sweet as you
         A chord diagramD MajorD
There's not much else I can do
      A chord diagramE minorEm
But fall for you

---------------------------------

thats pretty much it
i dunno if thats right or not, but it sounds like it fits pretty well
except im not sure about the A/C#m
but you can use that as a starting point :)

----------------------------------------------------------------------------
	                           I Just Laugh (AaR0n ^)
----------------------------------------------------------------------------
This is the just normal playing version of the song

NO capo
standard tuning

e|------------------------------------------------|
B|------------------------------------------------|
G|------------------------------------------------|
D|--------------2--------------2------------------|
A|-0-0--0-0-2h4---0-0--0-0-2h4---0-0--0-0-4b4p2h4-|
E|------------------------------------------------| x2

play each chord a few times

e|--5------5---5------5--|
B|--5------7---5------7--|
G|--6------7---6------7--|
D|--7------7---7------7--|
A|--7------5---7------5--|
E|--5----------5---------|

play each chord only once

e|--5---5---3---5---5--|
B|--5---7---3---7---5--|
G|--6---7---4---7---6--|
D|--7---7---5---7---7--|
A|--7---5---5---5---7--|
E|--5-------3-------5--|


e|----------------------------------------------------------------|
B|----------------------------------------------------------------|
G|-7-7-7--7-7-----------7-7-7--7-7-----------7-7-7--7-7-----------|
D|-7-7-7--7-7-----------7-7-7--7-7-----------7-7-7--7-7-----------|
A|-5-5-5--5-5-----------5-5-5--5-5-----------5-5-5--5-5-----------|
E|----------------------------------------------------------------|

e|-------------------------------------------------------------|
B|-------------------------------------------------------------|
G|--------------2-2-2---------------2-2-2---------------2-2-2--|
D|-2-2-2--2-2-2-2-2-2--2-2-2--2-2-2-2-2-2--2-2-2--2-2-2-2-2-2--|
A|-2-2-2--2-2-2-0-0-0--2-2-2--2-2-2-0-0-0--2-2-2--2-2-2--------|
E|-0-0-0--0-0-0--------0-0-0--0-0-0--------0-0-0--0-0-0--------|

e|------------------------|
B|------------------------|
G|------------------------|
D|--------------2-4b~4\2--|
A|-0-0--0-0-2h4-----------|
E|------------------------|

e|------------------------------------------------|
B|------------------------------------------------|
G|------------------------------------------------|
D|--------------2--------------2------------------|
A|-0-0--0-0-2h4---0-0--0-0-2h4---0-0--0-0-4b4p2h4-|
E|------------------------------------------------| x2

play each chord only once

e|--5---5---3---5---5--|
B|--5---7---3---7---5--|
G|--6---7---4---7---6--|
D|--7---7---5---7---7--|
A|--7---5---5---5---7--|
E|--5-------3-------5--|

e|----------------------------------------------------------------|
B|----------------------------------------------------------------|
G|-7-7-7--7-7-----------7-7-7--7-7-----------7-7-7--7-7-----------|
D|-7-7-7--7-7-----------7-7-7--7-7-----------7-7-7--7-7-----------|
A|-5-5-5--5-5-----------5-5-5--5-5-----------5-5-5--5-5-----------|
E|----------------------------------------------------------------|

e|-------------------------------------------------------------|
B|-------------------------------------------------------------|
G|--------------2-2-2---------------2-2-2---------------2-2-2--|
D|-2-2-2--2-2-2-2-2-2--2-2-2--2-2-2-2-2-2--2-2-2--2-2-2-2-2-2--|
A|-2-2-2--2-2-2-0-0-0--2-2-2--2-2-2-0-0-0--2-2-2--2-2-2--------|
E|-0-0-0--0-0-0--------0-0-0--0-0-0--------0-0-0--0-0-0--------|

e|---------------------------------|
B|---------------------------------|
G|----------------------2-2-2-22-2-|
D|-2-2-2--2-2-2--2-2-2--2-2-2-22-2-|
A|-2-2-2--2-2-2--2-2-2--0-0-0-00-0-|
E|-0-0-0--0-0-0--0-0-0-------------|

e|----------------------------------------------------------------|
B|----------------------------------------------------------------|
G|-7-7-7--7-7-----------7-7-7--7-7-----------7-7-7--7-7-----------|
D|-7-7-7--7-7-----------7-7-7--7-7-----------7-7-7--7-7-----------|
A|-5-5-5--5-5-----------5-5-5--5-5-----------5-5-5--5-5-----------|
E|----------------------------------------------------------------|

e|-------------------------------------------------------------|
B|-------------------------------------------------------------|
G|--------------2-2-2---------------2-2-2---------------2-2-2--|
D|-2-2-2--2-2-2-2-2-2--2-2-2--2-2-2-2-2-2--2-2-2--2-2-2-2-2-2--|
A|-2-2-2--2-2-2-0-0-0--2-2-2--2-2-2-0-0-0--2-2-2--2-2-2--------|
E|-0-0-0--0-0-0--------0-0-0--0-0-0--------0-0-0--0-0-0--------|

e|--------------------------------------|
B|--------------------------------------|
G|--------------------------------------|
D|--------------2-------------2---------|
A|-0-0--0-0-2h4---0-0--0-0-2h4---0-0--0-|
E|--------------------------------------|

----------------------------------------------------------------------------
	                           Simple Enough
----------------------------------------------------------------------------
Simple Enough By Never Shout Never
The Summer EP
Standard Tuning

Tabbing on this video from nevershoutnever http://www.youtube.com/watch v=guN9A2bK74g


Intro
    A chord diagramC majorC
e|--0--1---0--1---0--1---0-------|
B|---1--1-1-1--1-1-1--1-1--------|
G|----0--2---0--2---0--2---------|
D|-------------------------------|
A|--3--3---3--3---3--3---3-------|
E|-------------------------------|


Verse:

    A chord diagramC majorC
e|--0--1---0--1---0--1---0-------|
B|---1--1-1-1--1-1-1--1-1--------|
G|----0--2---0--2---0--2---------|
D|-------------------------------|
A|--3--3---3--3---3--3---3-------|
E|-------------------------------|
If I was a sailor
I'd sail the seven seas
To tell you baby I dont want you to leave

    A chord diagramG MajorG
e|--0--1---0--1---0--1---3-------|
B|---1--1-1-1--1-1-1--1-1--------|
G|----0--2---0--2---0--2---------|
D|-------------------------------|
A|--3--3---3--3---3--3---3-------|
E|-------------------------------|
You see this world is such a sad place
And without your pretty face
Im sure its gonna wind up much worse

e|--------------|
B|--------------|
G|--------------|
D|--------------|
A|--------------|
E|-----12s3-----|


Pre-chorus:

    A chord diagramC majorC
And I know that you'll see someday that I cant live without you
      A chord diagramG MajorG
And I know what I say is true cause i'm still stuck on you girl


Chorus:

A chord diagramFF
Im in love from the first time I laid my eyes on you
                 A chord diagramC majorC
A-shoo-do-do-do-do-do
                     A chord diagramG MajorG
Theres nothing I can do
    A chord diagramFF
And Im in love from the first time I laid my lips on yours
                         A chord diagramC majorC
Now youre walking out my door
                         A chord diagramG MajorG
And theres nothing I can do


Verse 2:

    A chord diagramC majorC
e|--0--1---0--1---0--1---0-------|
B|---1--1-1-1--1-1-1--1-1--------|
G|----0--2---0--2---0--2---------|
D|-------------------------------|
A|--3--3---3--3---3--3---3-------|
E|-------------------------------|
And if I could explore the world
Id bring you along
Wed go from New York to Timbuktu

    A chord diagramG MajorG
e|--0--1---0--1---0--1---3-------|
B|---1--1-1-1--1-1-1--1-1--------|
G|----0--2---0--2---0--2---------|
D|-------------------------------|
A|--3--3---3--3---3--3---3-------|
E|-------------------------------|
But truly I am set right here at Dennys
Drinking coffee and sharing a cigarette

e|--------------|
B|--------------|
G|--------------|
D|--------------|
A|--------------|
E|-----12s3-----|


Pre-chorus:

    A chord diagramC majorC
And I know that you'll see someday that I cant live without you
      A chord diagramG MajorG
And I know what I say is true cause i'm still stuck on you girl


Chorus:

A chord diagramFF
Im in love from the first time I laid my eyes on you
                 A chord diagramC majorC
A-shoo-do-do-do-do-do
                     A chord diagramG MajorG
Theres nothing I can do
    A chord diagramFF
And Im in love from the first time I laid my lips on yours
                         A chord diagramC majorC
Now youre walking out my door
                         A chord diagramG MajorG
And theres nothing I can do

                 A chord diagramC majorC
I'm in love with you

----------------------------------------------------------------------------
	                           On The Brightside (Mwmt)
----------------------------------------------------------------------------
This song is very simple.


Verse
  A chord diagramC majorC
E|-------------------------------------------------|
B|---1---1---1---1---0---0---0---0---1---1---1---1-|
G|-------------------------------------------------|
D|-------------------------------------------------|
A|-0---0---0---0---2---2---2---2---3---3---3---3---|
E|-------------------------------------------------|

  A chord diagramG MajorG
E|------------------------------------------------|
B|------------------------------------------------|
C|---2---2---0---0--------------------------------|
D|------------------------------------------------|
A|------------------------------------------------|
E|-1---1---3---3----------------------------------|

x2


Chorus
  A chord diagramA minorAm
E|------------------------------------------------|
B|---1---1---1---1---1---1---1---1----------------|
G|------------------------------------------------|
D|------------------------------------------------|
A|-3---3---3---3---0---0---0---0------------------|
E|------------------------------------------------|

 A chord diagramG MajorG
E|------------------------------------------------|
B|------------------------------------------------|
C|---2---2---2---2---0---0---0---0----------------|
D|------------------------------------------------|
A|------------------------------------------------|
E|-1---1---1---1---3---3---3---3------------------|

x2

----------------------------------------------------------------------------
	                              Losing It (AaR0n ^)
----------------------------------------------------------------------------

Capo 1st
Chords Used: A chord diagramE minor 7Em7


A chord diagramC majorC

A chord diagramD/F#D/F#
 All we ever did was move around
      A chord diagramC majorC
I was always the new kid, never the cool kid
A chord diagramD/F#D/F#
 But all i ever wanted to do was to fall in love
A chord diagramC majorC
  Just to be in love

       A chord diagramE minorEm
But my heart was racing
   A chord diagramCadd9Cadd9
My mind was screaming
       A chord diagramD/F#D/F#
You've got your whole life to do these things
       A chord diagramE minorEm
But my legs were shaking
   A chord diagramD MajorD
My hands were searching for her in the backseat of my car

A chord diagramD MajorD
 I just lost it
A chord diagramG MajorG
 And i can't believe it

A chord diagramD/F#D/F#
 I knew i was only sixteen
                A chord diagramC majorC
But i thought i loved her and it'd last forever
A chord diagramE minorEm
 But only if i knew that she wasn't true
              A chord diagramC majorC
How could she do this to me?

   A chord diagramE minorEm
My heart was racing
   A chord diagramCadd9Cadd9
My mind was screaming
       A chord diagramD/F#D/F#
You've got your whole life to do these things
       A chord diagramE minorEm
But my legs were shaking
   A chord diagramD MajorD
My hands were searching for her in the backseat of my car

A chord diagramD MajorD
 I just lost it
A chord diagramG MajorG
 And i can't believe it

A chord diagramC majorC
 Ooooooh  Oooooooh  Oooh

----------------------------------------------------------------------------
	                           Liar Liar (Mwmt)
----------------------------------------------------------------------------

    A chord diagramF# minorF#m
you got it all down got it all down down
                 A chord diagramD MajorD
It was science,
                                  A chord diagramE MajorE
breakin' hearts is what you do for fun, little one
          A chord diagramD MajorD
but see I wrote it all down wrote it all down into a song
                                     A chord diagramD MajorD
ill break your heart in just 3 minutes now look who won

A chord diagramE MajorE

A chord diagramD MajorD
yeah im moving on but that’s the way it goes when you break my heart
   A chord diagramE MajorE
everybody knows don’t pull that shit again
 A chord diagramE7E7
from you and its building up, I can see that ive had enough of you
           A chord diagramE MajorE
im finally through

A chord diagramE MajorE
and all I see in you
   A chord diagramE7E7
is another mistake wrapped over my shoulder
A chord diagramE7E7
now I see who you ah-ah-ah-are
    A chord diagramE7E7
and all I saw in you, was girl just lookin' for love
    A chord diagramF# minorF#m
now all I need is an apology
but damn that’s too much

A chord diagramE MajorE

A chord diagramE7E7
everybodys talkin' bout how you're not the girl that you say you are
                                                      A chord diagramE MajorE
with the deceiving little smile and your blackhole of denial
A chord diagramE MajorE
im not the least bit surprised that your whole wide world is crashing down right before my eyes


A chord diagramE MajorE
and all I see in you
   A chord diagramE7E7
is another mistake wrapped over my shoulder
A chord diagramE7E7
now I see who you ah-ah-ah-are
    A chord diagramE7E7
and all I saw in you, was girl just lookin' for love
    A chord diagramF# minorF#m
now all I need is an apology

A chord diagramE MajorE 2x


A chord diagramE MajorE
and all I see in you
   A chord diagramE7E7
is another mistake wrapped over my shoulder
A chord diagramE7E7
now I see who you ah-ah-ah-are
    A chord diagramE7E7
and all I saw in you, was girl just lookin' for love
    A chord diagramF# minorF#m
now all I need is an apology
    A chord diagramF# minorF#m
but damn that’s too much



I Hope you all enjoyed these tabs I give thanks to everyone that has tabbed these
and everyone that helped! :)
Let's make the world a happier place!

↓ Add and view comments below ↓

What do you think about this song and these chords?

Add your comments, questions, rant or a thumbs up below.

Almost there ...

Sign in to get your own page with links to favourite songs and more. You are just one click away...

Login with Facebook Login with Google