Log in

One click and you are in

Login with Facebook Login with Google

Why sign up and log in

Guitar Tabs Explorer
Nevershoutnever! guitar tabs for Subliminal messages

Guitar tabs with lyrics

-------------------------------------------------------------------------------
                             SUBLIMINAL MESSAGES -- Never Shout Never
-------------------------------------------------------------------------------
Tabbed by: Caleb Robinson
E-mail: notclouds@gmail.com
Tuning: A chord diagramE MajorE Standard

Guide:
S: Tap/slap strings with hand
P: Pop the note with thumb


Intro/Verse:
e|---------S------------S----------S-----------------------------------------|
B|-----2---S--------2---S------3---S----10---10----[                    ]----|
G|-----1---S--------0---S------4---S---------------[Repeat 2x For intro ]----|
D|-----2---S--------2---S------4---S---------------[Repeat 4x For verse ]----|
A|--0------S---0h1------S---2------S-----7----9----[                    ]----|
E|---------S------------S----------S-----------------------------------------|

Chorus:
e|--5--------------------5-------------------------5--S------4--S------------|
B|--7--Find comfortable--6--Find comfortable-------5--S------4--S------------|
G|--7--strum pattern-----7--strum pattern----------6--S------5--S------------|
D|--7--------------------7-------------------------7--S------6--S------------|
A|--5--------------------5-------------------------7--S------6--S------------|
E|----------------------------------------------5--5--S----4-4--S------------|
                                                P          P

e|-----3--S-------2--S---------S-------S-------S---------S-------------------|
B|-----3--S-------2--S------2--S----6--S----8--S-----12--S-------------------|
G|-----4--S-------3--S------0--S----0--S----0--S------0--S-------------------|
D|-----5--S-------4--S------2--S----6--S----8--S-----12--S-------------------|
A|-----5--S-------4--S----1----S--5----S--7----S--11-----S-------------------|
E|--3--3--S----2--2--S---------S-------S-------S---------S-------------------|
    P          P

Repeat Verse & Chorus
End on:
e|--0~~----------------------------------------------------------------------|
B|--2~~----------------------------------------------------------------------|
G|--1~~----------------------------------------------------------------------|
D|--2~~----------------------------------------------------------------------|
A|--0~~----------------------------------------------------------------------|
E|---------------------------------------------------------------------------|

Lyrics:
I'm thinkin' about movin' to California
Where it is warmer.
And all the girls look so damn good
But, they're so annoying.
And honestly, I don't even care
I'm so fed up with
All these Subliminal Messages deep down in my mind
I'm ready

For something new
A chord diagramA majorA new neighborhood to call my own.
I swear I don't have a home anymore, so.
I'll have a good time wasting all my
Time.

I'm thinkin' about movin' to California
To see what happens.
Where all the grass, it grows so green
It's almost legal.
And honestly, I don't even care.
I'll smoke a couple
Blunts (months ) away with you 'cause I ain't got nothin' better to do
Than gettin' high with you.

In our new 'hood to call our own
I swear I don't have a home anymore, so.
I'll have a good time wasting all my

↓ Add and view comments below ↓

What do you think about this song and these tabs?

Add your comments, questions, rant or a thumbs up below.

Almost there ...

Sign in to get your own page with links to favourite songs and more. You are just one click away...

Login with Facebook Login with Google