Log in

One click and you are in

Login with Facebook Login with Google

Why sign up and log in

Guitar Tabs Explorer
Nevershoutnever! guitar tabs for Making love

Guitar tabs with lyrics

This is my first tab, so don't hate if it's terrible :)


Just play these repeatedly until chorus
Verse 1

I know your love is true.....

E--0-------0------0------1--|
B--1-------0------1------1--|
G--0-------0------2------2--|
D--2-------2------2------3--|
A--3-------2------0------x--|
E--x-------x------x------x--|

It's not just sex for you
It's the first time that I felt this way in a long time
And it's something I could get used to


Chorus

E--1------0--------3--|
B--1------1--------3--|
G--2------0--------0--|
D--3------2--------0--|
A--X------3--------2--|
E--X------X--------3--|


It's love, it's love, it's true
When I'm making love to you
It's not just teenage lust
Or trying something new it's love,
But we're too young to follow through

Verse 2

Her heart is made of gold
These past two years
I've grown so cold
At the thought of trying out a different lover
Now I know, I could never love another


Chorus

It's love, it's love, it's true
When I'm making love to you
It's not just teenage lust
Or trying something new it's love,
But we're too young to follow through


Outro( same as chorus but with one more chord )
E--1------0--------3----x--|
B--1------1--------3----3--|
G--2------0--------0----0--|
D--3------2--------0----2--|
A--X------3--------2----3--|
E--X------X--------3----x--|


With all the plans we made
Travel all the world
And drink our cares away
What a happy day, if only I could say
That she would be my lover, from now until forever


Chorus
It's love, it's love, it's true
When I'm making love to you
It's not just teenage lust
Or trying something new it's love,
But we're too young to follow through


:D well, i think that's somewhat right? But this is my first tab so leave comments or

Other versions of Making Love

Making loveChords

↓ Add and view comments below ↓

What do you think about this song and these tabs?

Add your comments, questions, rant or a thumbs up below.

Almost there ...

Sign in to get your own page with links to favourite songs and more. You are just one click away...

Login with Facebook Login with Google