Log in

One click and you are in

Login with Facebook Login with Google

Why sign up and log in

Guitar Tabs Explorer
Nevershoutnever! tabs for Losing it

Guitar tabs

This is if you don't have a capo. Try to figure out the strumming pattern by yourself
-Verse 1
-Pre-Chorus
-Chorus
-Verse 2
-Pre-Chorus
-Chorus(2)
All we ever did was move around...

Intro/Verses
e|----------------------------------------------------------3-----------|
b|----------------------------------------------------------3-----------|
g|---------4----------------7-------------9-----------------5-----------|
d|---------5----------------7-------------9-----------------5-----------|
a|---------5----------------5-------------7-----------------3-----------|
A chord diagramE MajorE|----------------------------------------------------------3-----------|

 My heart was racing...
 Pre Chorus
e|--------------------------3-------------------------------------------|
b|--------------------------3-------------------------------------------|
g|-----------9--------------5-------------4-----------------7-----------|
d|-----------9--------------5-------------5-----------------7-----------|
a|-----------7--------------3-------------5-----------------5-----------|
A chord diagramE MajorE|--------------------------3-------------------------------------------|

I just lost it, and I can't believe it...

Chorus
e|-----------3---------------------------------------------------------|
b|-----------3---------------------------------------------------------|
g|-----------5--------------7-------------9-----------------7----------|
d|-----------5--------------7-------------9-----------------7----------|
a|-----------3--------------5-------------7-----------------5----------|
A chord diagramE MajorE|-----------3---------------------------------------------------------|

Other versions of Losing It

Losing itChords

Almost there ...

Sign in to get your own page with links to favourite songs and more. You are just one click away...

Login with Facebook Login with Google