Log in

One click and you are in

Login with Facebook Login with Google

Why sign up and log in

Guitar Tabs Explorer
Nevershoutnever! guitar tabs for Damn dog

Guitar tabs

-------------------------------------------------------------------------------------------------
                                     NEVERSHOUTNEVER - Damn Dog
-------------------------------------------------------------------------------------------------

Band: Nevershoutnever
Album: What Is Love?
Track: 11

Tabbed by: AsILayDying504

[0:00 - 0:18]

e|-----------|-----------------------------------|---------------------------|
B|-----------|-----------------------------------|---------------------------|
G|-----------|-----------------------------------|---------------------------|
D|-----------|-----------------------------------|---------------------------|
A|----4---4--|----4---4---4---4---4---4---4---4--|----4---4---4---4---4---4--|
E|--1---1----|--2---2---2---2---2---2---1---1----|--2---2---2---2---2---2----|

e|-----------|-----------------------------------|---------------------------|
B|-----------|--------3--------------------------|--------3-------2----------|
G|-----------|------4----------------------------|------4-----4--------------|
D|----4---4--|----4-------4---4---4---4---4---4--|----4---------4------------|
A|--1---1----|--2-----------2---2---2---1---1----|--2------------------------|
E|-----------|-----------------------------------|---------------------------|


[0:19 - 0:40]

e|-----------|-----------------------------------|
B|-----------|-----------------------------------|
G|-----------|------9----------------------------|
D|------9----|----7-------9---------6-----7------|
A|----7---7--|--5-------7---7-----4-----4---5-4--|
E|--5--------|--------5-------5-1-----2----------|

e|-----------------------------------|-------------------------------|
B|-----------------------------------|-------------------------------|
G|------9----------------------------|------9------------------------|
D|----7-------9---------6-----7------|----7-------9---------6-----7--|
A|--5-------7---7-----4-----4---5-4--|--5-------7---7-----4-----4----|
E|--------5-------5-1-----2----------|--------5-------5-1-----2------|

e|-----------------------------------|---------------------------|
B|-----------------------------------|---------------------------|
G|-----------------------------------|---------------------------|
D|-----------------------------------|---------------------------|
A|----4---4---4---4---4---4---4---4--|----4---4---4---4---4---4--|
E|--2---2---2---2---2---2---1---1----|--2---2---2---2---2---2----|

[0:41 - 0:58]

e|-----------|-----------------------------------|---------------------------|
B|-----------|-----------------------------------|---------------------------|
G|-----------|-----------------------------------|---------------------------|
D|-----------|-----------------------------------|---------------------------|
A|----4---4--|----4---4---4---4---4---4---4---4--|----4---4---4---4---4---4--|
E|--1---1----|--2---2---2---2---2---2---1---1----|--2---2---2---2---2---2----|

e|-----------|-----------------------------------|---------------------------|
B|-----------|--------3--------------------------|--------3-------2----------|
G|-----------|------4----------------------------|------4-----4--------------|
D|----4---4--|----4-------4---4---4---4---4---4--|----4---------4------------|
A|--1---1----|--2-----------2---2---2---1---1----|--2------------------------|
E|-----------|-----------------------------------|---------------------------|


[0:59 - 1:19]
e|-----------|-----------------------------------|
B|-----------|-----------------------------------|
G|-----------|------9----------------------------|
D|------9----|----7-------9---------6-----7------|
A|----7---7--|--5-------7---7-----4-----4---5-4--|
E|--5--------|--------5-------5-1-----2----------|

e|-----------------------------------|-------------------------------|
B|-----------------------------------|-------------------------------|
G|------9----------------------------|------9------------------------|
D|----7-------9---------6-----7------|----7-------9---------6-----7--|
A|--5-------7---7-----4-----4---5-4--|--5-------7---7-----4-----4----|
E|--------5-------5-1-----2----------|--------5-------5-1-----2------|

e|-----------------------------------|---------------------------|
B|-----------------------------------|---------------------------|
G|-----------------------------------|---------------------------|
D|-----------------------------------|---------------------------|
A|----4---4---4---4---4---4---4---4--|----4---4---4---4---4---4--|
E|--2---2---2---2---2---2---1---1----|--2---2---2---2---2---2----|


[1:20 - 1:37]

e|-----------|-----------------------------------|---------------------------|
B|-----------|-----------------------------------|---------------------------|
G|-----------|-----------------------------------|---------------------------|
D|-----------|-----------------------------------|---------------------------|
A|----4---4--|----4---4---4---4---4---4---4---4--|----4---4---4---4---4---4--|
E|--1---1----|--2---2---2---2---2---2---1---1----|--2---2---2---2---2---2----|

e|-----------|-----------------------------------|---------------------------|
B|-----------|--------3--------------------------|--------3-------2----------|
G|-----------|------4----------------------------|------4-----4--------------|
D|----4---4--|----4-------4---4---4---4---4---4--|----4---------4------------|
A|--1---1----|--2-----------2---2---2---1---1----|--2------------------------|
E|-----------|-----------------------------------|---------------------------|


[1:38 - 2:16]

e|-----------|-----------------------------------|
B|-----------|-----------------------------------|
G|-----------|------9----------------------------|
D|------9----|----7-------9---------6-----7------|
A|----7---7--|--5-------7---7-----4-----4---5-4--|
E|--5--------|--------5-------5-1-----2----------|

e|-----------------------------------|-------------------------------|
B|-----------------------------------|-------------------------------|
G|------9----------------------------|------9------------------------|
D|----7-------9---------6-----7------|----7-------9---------6-----7--|
A|--5-------7---7-----4-----4---5-4--|--5-------7---7-----4-----4----|
E|--------5-------5-1-----2----------|--------5-------5-1-----2------|

e|-----------------------------------|-----------------------------------|
B|-----------------------------------|-----------------------------------|
G|-----------------------------------|-----------------------------------|
D|-----------------------------------|-----------------------------------|
A|----4---4---4---4---4---4---4---4--|----4---4---4---4---4---4---4---4--|
E|--2---2---2---2---2---2---1---1----|--2---2---2---2---2---2---1---1----|

e|-----------------------------------|-----------------------------|
B|-----------------------------------|-----------------------------|
G|-----------------------------------|-----------------------------|
D|-----------------------------------|-----------------------------|
A|----4---4---4---4---4---4---4---4--|-----4-----4-----4-----4-----|
E|--2---2---2---2---2---2---1---1----|--2-----2-----2-----2-----2--|

Other versions of Damn Dog

Damn dogChords

↓ Add and view comments below ↓

What do you think about this song and these tabs?

Add your comments, questions, rant or a thumbs up below.

Almost there ...

Sign in to get your own page with links to favourite songs and more. You are just one click away...

Login with Facebook Login with Google