Log in

One click and you are in

Login with Facebook Login with Google

Why sign up and log in

Guitar Tabs Explorer
Nevermore tabs for Never purify

Guitar tabs with lyrics

Tempo: 123

Tuning: A#D#G#C#F#A#D#

A chord diagramD#D#||------------------------|----------------------------------|
A chord diagramA#A#||--0--0-0-0-0-0--0-0-0-0-|---0---0--0--0--0--0---0--0--0--0-|
A chord diagramF#F#||------------------------|----------------------------------|
A chord diagramC#C#||--9--9-9-9-9-9--9-9-9-9-|--11--11-11-11-11-11--11-11-11-11-|
A chord diagramG#G#||------------------------|----------------------------------|
A chord diagramD#D#||--7--7-7-7-7-7--7-7-7-7-|---9---9--9--9--9--9---9--9--9--9-|
A chord diagramA#A#||--0--0-0-0-0-0--0-0-0-0-|---0---0--0--0--0--0---0--0--0--0-|
   A chord diagramE MajorE   S  S  S  S  A chord diagramE MajorE   S  S  S  S     S   S  S  S  S  S  A chord diagramE MajorE   S  S  S  S
----------------------------------|-------------------------------------|
---0---0--0--0--0--0---0--0--0--0-|---0---0--0--0--0--0--0---0--0--0--0-|
----------------------------------|-------------------------------------|
--14--14-14-14-14-14--14-14-14-14-|--13s-14-14-14-14-14-14--14-14-14-14-|
----------------------------------|-------------------------------------|
--12--12-12-12-12-12--12-12-12-12-|--11s-12-12-12-12-12-12--12-12-12-12-|
---0---0--0--0--0--0---0--0--0--0-|---0------0--0--0--0--0---0--0--0--0-|


  A chord diagramE MajorE  S S S S A chord diagramE MajorE  S S S S     A chord diagramE MajorE   S  S  S  S  A chord diagramE MajorE   S  S  S  S
------------------------|----------------------------------|
--0--0-0-0-0-0--0-0-0-0-|---0---0--0--0--0--0---0--0--0--0-|
------------------------|----------------------------------|
--9--9-9-9-9-9--9-9-9-9-|--11--11-11-11-11-11--11-11-11-11-|
------------------------|----------------------------------|
--7--7-7-7-7-7--7-7-7-7-|---9---9--9--9--9--9---9--9--9--9-|
--0--0-0-0-0-0--0-0-0-0-|---0---0--0--0--0--0---0--0--0--0-|


  A chord diagramE MajorE  S S S S A chord diagramE MajorE  S S S S    A chord diagramE MajorE  S S S S A chord diagramE MajorE  S S S S    A chord diagramE MajorE  S S S S A chord diagramE MajorE  S S S S
------------------------|------------------------|------------------------|
--0--0-0-0-0-0--0-0-0-0-|--0--0-0-0-0-0--0-0-0-0-|--0--0-0-0-0-0--0-0-0-0-|
------------------------|------------------------|------------------------|
--9--9-9-9-9-9--9-9-9-9-|--9--9-9-9-9-9--9-9-9-9-|--9--9-9-9-9-9--9-9-9-9-|
------------------------|------------------------|------------------------|
--7--7-7-7-7-7--7-7-7-7-|--7--7-7-7-7-7--7-7-7-7-|--7--7-7-7-7-7--7-7-7-7-|
--0--0-0-0-0-0--0-0-0-0-|--0--0-0-0-0-0--0-0-0-0-|--0--0-0-0-0-0--0-0-0-0-|

   A chord diagramE MajorE   S  S  S  S  A chord diagramE MajorE   S  S  S  S     A chord diagramE MajorE   S  S  S  S  A chord diagramE MajorE   S  S  S  S
----------------------------------|----------------------------------|
---0---0--0--0--0--0---0--0--0--0-|---0---0--0--0--0--0---0--0--0--0-|
----------------------------------|----------------------------------|
--11--11-11-11-11-11--11-11-11-11-|--14--14-14-14-14-14--14-14-14-14-|
----------------------------------|----------------------------------|
---9---9--9--9--9--9---9--9--9--9-|--12--12-12-12-12-12--12-12-12-12-|
---0---0--0--0--0--0---0--0--0--0-|---0---0--0--0--0--0---0--0--0--0-|


   S   S  S  S  S  S  A chord diagramE MajorE   S  S  S  S    A chord diagramE MajorE  S S S S A chord diagramE MajorE  S S S S
-------------------------------------|------------------------|
---0---0--0--0--0--0--0---0--0--0--0-|--0--0-0-0-0-0--0-0-0-0-|
-------------------------------------|------------------------|
--13s-14-14-14-14-14-14--14-14-14-14-|--9--9-9-9-9-9--9-9-9-9-|
-------------------------------------|------------------------|
--11s-12-12-12-12-12-12--12-12-12-12-|--7--7-7-7-7-7--7-7-7-7-|
---0------0--0--0--0--0---0--0--0--0-|--0--0-0-0-0-0--0-0-0-0-|


   A chord diagramE MajorE   S  S  S  S  A chord diagramE MajorE   S  S  S  S    A chord diagramE MajorE  S S S S A chord diagramE MajorE  S S S S
----------------------------------|------------------------|
---0---0--0--0--0--0---0--0--0--0-|--0--0-0-0-0-0--0-0-0-0-|
----------------------------------|------------------------|
--11--11-11-11-11-11--11-11-11-11-|--9--9-9-9-9-9--9-9-9-9-|
----------------------------------|------------------------|
---9---9--9--9--9--9---9--9--9--9-|--7--7-7-7-7-7--7-7-7-7-|
---0---0--0--0--0--0---0--0--0--0-|--0--0-0-0-0-0--0-0-0-0-|


  A chord diagramE MajorE  S S S S A chord diagramE MajorE  S S A chord diagramE MajorE       S  A chord diagramE MajorE  S S S S S S S S S    S  A chord diagramE MajorE  S S S S S S S S S
------------------------||--------------------------|--------------------------|
--0--0-0-0-0-0--0-0-0\--||--------------------------|--------------------------|
------------------------||--------------------------|--------------------------|
--9--9-9-9-9-9--9-9-9\--||--------------------------|--------------------------|
------------------------||--------------------------|--------------------------|
--7--7-7-7-7-7--7-7-7\--||--------------------------|----------------------2-3-|
--0--0-0-0-0-0--0-0-0\--||--3s-2--0---0-0-0---0---0-|--3s-2--0---0-0-2-3-5-----|


  S  A chord diagramE MajorE  S S S S S S S S S    S  A chord diagramE MajorE  S S S S S S S S S  4x
--------------------------|---------------------------||
--------------------------|---------------------------||
--------------------------|---------------------------||
--------------------------|---------------------------||
--------------------------|---------------------------||
--------------------------|---------------------------||
--3s-2--0---0-0-0---0---0-|--3s-2--0---0-0-2-3-5-3-2--||


  S S S S S S S S S S S S    S S S S S S S S S S S S  3x
--------------------------|---------------------------||
--------------------------|---------------------------||
--------------------------|---------------------------||
--------------------------|---------------------------||
--5---------8-5---------6-|--5---------8-5---------6--||
----4-----7-----4-----5---|----4-----7-----4-----5----||
------3-6---------3-4-----|------3-6---------3-4------||


  S S S S S S S S S S S S    S S S S S S S S S S S S
--------------------------|--------------------------|
--------------------------|--------------------------|
--------------------------|--------------------------|
--------------------------|--------------------------|
--5---------8-5---------6-|--5---------8-5---------6-|
----4-----7-----4-----5---|----4-----7-----4-----5---|
------3-6---------3-4-----|------3-6---------3-4-----|


   S  A chord diagramE MajorE  S S S S S S S S S    S  A chord diagramE MajorE  S S S S S S S S S
|--------------------------|--------------------------|
|--------------------------|--------------------------|
|--------------------------|--------------------------|
|--------------------------|--------------------------|
|--------------------------|--------------------------|
|--------------------------|----------------------2-3-|
|--3s-2--0---0-0-0---0---0-|--3s-2--0---0-0-2-3-5-----|


  S  A chord diagramE MajorE  S S S S S S S S S    S  A chord diagramE MajorE  S S S S S S S S S      Q.      S A chord diagramE MajorE  A chord diagramE MajorE  S
--------------------------|---------------------------||--------------------|
--------------------------|---------------------------||--------------------|
--------------------------|---------------------------||--------------------|
--------------------------|---------------------------||--------------------|
--------------------------|---------------------------||--------------------|
--------------------------|---------------------------||--9\------2-2--2--2-|
--3s-2--0---0-0-0---0---0-|--3s-2--0---0-0-2-3-5-3-2--||--7\------0-0--0--0-|


  A chord diagramE MajorE  S S S S A chord diagramE MajorE  A chord diagramE MajorE  A chord diagramE MajorE   4x  A chord diagramE MajorE  S S S S A chord diagramE MajorE  S S S S
-----------------------||------------------------|
-----------------------||--0--0-0-0-0-0--0-0-0-0-|
-----------------------||------------------------|
-----------------------||--9--9-9-9-9-9--9-9-9-9-|
-----------------------||------------------------|
--2--2-2-2-2-4--5--4---||--7--7-7-7-7-7--7-7-7-7-|
--0--0-0-0-0-2--3--2---||--0--0-0-0-0-0--0-0-0-0-|


   A chord diagramE MajorE   S  S  S  S  A chord diagramE MajorE   S  S  S  S     A chord diagramE MajorE   S  S  S  S  A chord diagramE MajorE   S  S  S  S
----------------------------------|----------------------------------|
---0---0--0--0--0--0---0--0--0--0-|---0---0--0--0--0--0---0--0--0--0-|
----------------------------------|----------------------------------|
--11--11-11-11-11-11--11-11-11-11-|--14--14-14-14-14-14--14-14-14-14-|
----------------------------------|----------------------------------|
---9---9--9--9--9--9---9--9--9--9-|--12--12-12-12-12-12--12-12-12-12-|
---0---0--0--0--0--0---0--0--0--0-|---0---0--0--0--0--0---0--0--0--0-|


   S   S  S  S  S  S  A chord diagramE MajorE   S  S  S  S    A chord diagramE MajorE  S S S S A chord diagramE MajorE  S S S S
-------------------------------------|------------------------|
---0---0--0--0--0--0--0---0--0--0--0-|--0--0-0-0-0-0--0-0-0-0-|
-------------------------------------|------------------------|
--13s-14-14-14-14-14-14--14-14-14-14-|--9--9-9-9-9-9--9-9-9-9-|
-------------------------------------|------------------------|
--11s-12-12-12-12-12-12--12-12-12-12-|--7--7-7-7-7-7--7-7-7-7-|
---0------0--0--0--0--0---0--0--0--0-|--0--0-0-0-0-0--0-0-0-0-|


   A chord diagramE MajorE   S  S  S  S  A chord diagramE MajorE   S  S  S  S    A chord diagramE MajorE  S S S S A chord diagramE MajorE  S S S S
----------------------------------|------------------------|
---0---0--0--0--0--0---0--0--0--0-|--0--0-0-0-0-0--0-0-0-0-|
----------------------------------|------------------------|
--11--11-11-11-11-11--11-11-11-11-|--9--9-9-9-9-9--9-9-9-9-|
----------------------------------|------------------------|
---9---9--9--9--9--9---9--9--9--9-|--7--7-7-7-7-7--7-7-7-7-|
---0---0--0--0--0--0---0--0--0--0-|--0--0-0-0-0-0--0-0-0-0-|


  A chord diagramE MajorE  S S S S A chord diagramE MajorE  S S S S    A chord diagramE MajorE  S S S S A chord diagramE MajorE  S S S S
------------------------|------------------------|
--0--0-0-0-0-0--0-0-0-0-|--0--0-0-0-0-0--0-0-0-0-|
------------------------|------------------------|
--9--9-9-9-9-9--9-9-9-9-|--9--9-9-9-9-9--9-9-9-9-|
------------------------|------------------------|
--7--7-7-7-7-7--7-7-7-7-|--7--7-7-7-7-7--7-7-7-7-|
--0--0-0-0-0-0--0-0-0-0-|--0--0-0-0-0-0--0-0-0-0-|


   A chord diagramE MajorE   S  S  S  S  A chord diagramE MajorE   S  S  S  S     A chord diagramE MajorE   S  S  S  S  A chord diagramE MajorE   S  S  S  S
----------------------------------|----------------------------------|
---0---0--0--0--0--0---0--0--0--0-|---0---0--0--0--0--0---0--0--0--0-|
----------------------------------|----------------------------------|
--11--11-11-11-11-11--11-11-11-11-|--14--14-14-14-14-14--14-14-14-14-|
----------------------------------|----------------------------------|
---9---9--9--9--9--9---9--9--9--9-|--12--12-12-12-12-12--12-12-12-12-|
---0---0--0--0--0--0---0--0--0--0-|---0---0--0--0--0--0---0--0--0--0-|


   S   S  S  S  S  S  A chord diagramE MajorE   S  S  S  S    A chord diagramE MajorE  S S S S A chord diagramE MajorE  S S S S
-------------------------------------|------------------------|
---0---0--0--0--0--0--0---0--0--0--0-|--0--0-0-0-0-0--0-0-0-0-|
-------------------------------------|------------------------|
--13s-14-14-14-14-14-14--14-14-14-14-|--9--9-9-9-9-9--9-9-9-9-|
-------------------------------------|------------------------|
--11s-12-12-12-12-12-12--12-12-12-12-|--7--7-7-7-7-7--7-7-7-7-|
---0------0--0--0--0--0---0--0--0--0-|--0--0-0-0-0-0--0-0-0-0-|


   A chord diagramE MajorE   S  S  S  S  A chord diagramE MajorE   S  S  S  S    A chord diagramE MajorE  S S S S A chord diagramE MajorE  S S S S
----------------------------------|------------------------|
---0---0--0--0--0--0---0--0--0--0-|--0--0-0-0-0-0--0-0-0-0-|
----------------------------------|------------------------|
--11--11-11-11-11-11--11-11-11-11-|--9--9-9-9-9-9--9-9-9-9-|
----------------------------------|------------------------|
---9---9--9--9--9--9---9--9--9--9-|--7--7-7-7-7-7--7-7-7-7-|
---0---0--0--0--0--0---0--0--0--0-|--0--0-0-0-0-0--0-0-0-0-|


  A chord diagramE MajorE  S S S S A chord diagramE MajorE  S S A chord diagramE MajorE      S S S S S S S S S S S S    S S S S S S S S S S S S
------------------------|--------------------------|--------------------------|
--0--0-0-0-0-0--0-0-0\--|--------------------------|--------------------------|
------------------------|--------------------------|--------------------------|
--9--9-9-9-9-9--9-9-9\--|--------------------------|--------------------------|
------------------------|--5-5---5---5-5---5---5---|--5-5---5---5-5---5---5---|
--7--7-7-7-7-7--7-7-7\--|--4-4---4---4-4---4---4---|--4-4---4---4-4---4---4---|
--0--0-0-0-0-0--0-0-0\--|--3-3---3---3-3---3---3---|--3-3---3---3-3---3---3---|


  S S S S S S S S S S S S    S S S S S S S S S S S S    S A chord diagramE MajorE  A chord diagramE MajorE  S A chord diagramE MajorE  A chord diagramE MajorE  A chord diagramE MajorE
--------------------------|--------------------------|---------------------|
--------------------------|--------------------------|---------------------|
--------------------------|--------------------------|--7-7--7--7-7--7--7--|
--6-6---6---6-6---6---6---|--6-6---6---6-6---6---6---|--6-6--6--6-6--6--6--|
--5-5---5---5-5---5---5---|--5-5---5---5-5---5---5---|--5-5--5--5-5--5--5--|
--4-4---4---4-4---4---4---|--4-4---4---4-4---4---4---|--4-4--4--4-4--4--4--|
--3-3---3---3-3---3---3---|--3-3---3---3-3---3---3---|---------------------|


  S A chord diagramE MajorE  A chord diagramE MajorE  S A chord diagramE MajorE  A chord diagramE MajorE  A chord diagramE MajorE      S S S S S S S S S S S S    S S S S S S S S S S S S
---------------------||--------------------------|--------------------------|
---------------------||--------------------------|--------------------------|
--7-7--7--7-7--7--7--||--------------------------|--------------------------|
--6-6--6--6-6--6--6--||--------------------------|--------------------------|
--5-5--5--5-5--5--5--||--5-----5-----5---5---6---|--5-----5-----5---6---7---|
--4-4--4--4-4--4--4--||--------------------------|--------------------------|
---------------------||----3-3---3-3---3---3---4-|----3-3---3-3---3---4---5-|


  S S S S S S S S S S S S    S S S S S S S S S S  S S
--------------------------|---------------------------|
--------------------------|---------------------------|
--------------------------|---------------------------|
--------------------------|---------------------------|
--8-----8-----8---8---9---|--8-----8-----8---9---10---|
--------------------------|---------------------------|
----6-6---6-6---6---6---7-|----6-6---6-6---6---7----8-|


   S S S  S S S  S S  S S  S  S     S S S  S S S  S S  S  S  S  S
--------------------------------|---------------------------------|
--------------------------------|---------------------------------|
--------------------------------|---------------------------------|
--------------------------------|---------------------------------|
--11-----11-----11---11---12----|--11-----11-----11---12----13----|
--------------------------------|---------------------------------|
-----9-9----9-9----9----9----10-|-----9-9----9-9----9----10----11-|


   S  S  S  S  S  S  S  S  S  S  S  S     S  S  S  S  S  S  S  S  S  S  S S
--------------------------------------|--------------------------------------||
--------------------------------------|--------------------------------------||
--------------------------------------|--------------------------------------||
--------------------------------------|--------------------------------------||
--14-------14-------14----14----15----|--14-------14-------13----12----11----||
--------------------------------------|--------------------------------------||
-----12-12----12-12----12----12----13-|-----12-12----12-12----11----10----9--||


  Q.     S A chord diagramE MajorE  A chord diagramE MajorE  S    A chord diagramE MajorE  S S S S A chord diagramE MajorE  A chord diagramE MajorE  A chord diagramE MajorE     Q.      S A chord diagramE MajorE  A chord diagramE MajorE  S
-------------------|----------------------|--------------------|
-------------------|----------------------|--------------------|
-------------------|----------------------|--------------------|
-------------------|----------------------|--------------------|
-------------------|----------------------|--------------------|
---------2-2--2--2-|--2--2-2-2-2-4--5--4--|--9\------2-2--2--2-|
---------0-0--0--0-|--0--0-0-0-0-2--3--2--|--7\------0-0--0--0-|


  A chord diagramE MajorE  S S S S A chord diagramE MajorE  A chord diagramE MajorE  A chord diagramE MajorE     Q.     S A chord diagramE MajorE  A chord diagramE MajorE  S    A chord diagramE MajorE  S S S S A chord diagramE MajorE  A chord diagramE MajorE  A chord diagramE MajorE
----------------------|-------------------|----------------------|
----------------------|-------------------|----------------------|
----------------------|-------------------|----------------------|
----------------------|-------------------|----------------------|
----------------------|-------------------|----------------------|
--2--2-2-2-2-4--5--4--|---------2-2--2--2-|--2--2-2-2-2-4--5--4--|
--0--0-0-0-0-2--3--2--|---------0-0--0--0-|--0--0-0-0-0-2--3--2--|


  Q.      S A chord diagramE MajorE
--------------------|----------------------|---------------------|
--------------------|----------------------|---------------------|
--------------------|----------------------|---------------------|
--------------------|----------------------|---------------------|
--------------------|----------------------|---------------------|
--9\------2-2--2--2-|--2--2-2-2-2-4--5--4--|---------------------|
--7\------0-0--0--0-|--0--0-0-0-0-2--3--2--|--2--2--2-2-2--3--2--|


                                                          PM PM PM PM PM PM
  A chord diagramE MajorE  A chord diagramE MajorE  S S S S A chord diagramE MajorE  A chord diagramE MajorE     A chord diagramE MajorE  A chord diagramE MajorE  S S S S A chord diagramE MajorE  A chord diagramE MajorE     A chord diagramE MajorE  A chord diagramE MajorE  S S S  S  S  S  S  S
----------------------|----------------------|------------------------------|
----------------------|----------------------|------------------------------|
----------------------|----------------------|------------------------------|
----------------------|----------------------|------------------------------|
----------------------|----------------------|------------------------------|
----------------------|----------------------|------------4--4--4--4--4--4--|
--2--2--2-2-2-2-3--2--|--2--2--2-2-2-2-3--2--|--2--2--2-2-2--2--2--2--2--2--|


  A chord diagramE MajorE
----------------------|----------------------|----------------------|
----------------------|----------------------|----------------------|
----------------------|----------------------|----------------------|
----------------------|----------------------|----------------------|
----------------------|----------------------|----------------------|
----------------------|----------------------|----------------------|
--0--0--0-0-0-0-1--0--|--0--0--0-0-0-0-1--0--|--0--0--0-0-0-0-1--0--|


            PM PM PM PM PM PM
  A chord diagramE MajorE  A chord diagramE MajorE  S S S  S  S  S  S  S     A chord diagramE MajorE  A chord diagramE MajorE  S S S S A chord diagramE MajorE  A chord diagramE MajorE     A chord diagramE MajorE  A chord diagramE MajorE  S S S S A chord diagramE MajorE  A chord diagramE MajorE
------------------------------|----------------------|----------------------|
------------------------------|----------------------|----------------------|
------------------------------|----------------------|----------------------|
------------------------------|----------------------|----------------------|
------------------------------|----------------------|----------------------|
------------2--2--2--2--2--2--|----------------------|----------------------|
--0--0--0-0-0--0--0--0--0--0--|--7--7--7-7-7-7-8--7--|--7--7--7-7-7-7-8--7--|


  A chord diagramE MajorE  A chord diagramE MajorE  S S S S  A chord diagramE MajorE  A chord diagramE MajorE      A chord diagramE MajorE   A chord diagramE MajorE   S  S  S  S  A chord diagramE MajorE   A chord diagramE MajorE     Q.      S A chord diagramE MajorE  A chord diagramE MajorE  S
-----------------------|------------------------------|--------------------|
-----------------------|------------------------------|--------------------|
-----------------------|------------------------------|--------------------|
-----------------------|------------------------------|--------------------|
-----------------------|------------------------------|--------------------|
-----------------------|------------------------------|--9\------2-2--2--2-|
--8--8--8-8-8-8-10--8--|--10--10--10-10-10-10-12--10--|--7\------0-0--0--0-|


  A chord diagramE MajorE  S S S S A chord diagramE MajorE  A chord diagramE MajorE  A chord diagramE MajorE     Q.      S A chord diagramE MajorE  A chord diagramE MajorE  S    A chord diagramE MajorE  S S S S A chord diagramE MajorE  A chord diagramE MajorE  A chord diagramE MajorE
----------------------|--------------------|----------------------|
----------------------|--------------------|----------------------|
----------------------|--------------------|----------------------|
----------------------|--------------------|----------------------|
----------------------|--------------------|----------------------|
--2--2-2-2-2-4--5--4--|--9\------2-2--2--2-|--2--2-2-2-2-4--5--4--|
--0--0-0-0-0-2--3--2--|--7\------0-0--0--0-|--0--0-0-0-0-2--3--2--|


  S S S S S S S S S S S S    S S S S S S S S S S S S
--------------------------|--------------------------|
--------------------------|--------------------------|
--------------------------|--------------------------|
--------------------------|--------------------------|
--5-5---5---5-5---5---5---|--5-5---5---5-5---5---5---|
--4-4---4---4-4---4---4---|--4-4---4---4-4---4---4---|
--3-3---3---3-3---3---3---|--3-3---3---3-3---3---3---|


  S S S S S S S S S S S S    S S S S S S S S S S S S    S A chord diagramE MajorE  A chord diagramE MajorE  S A chord diagramE MajorE  A chord diagramE MajorE  A chord diagramE MajorE
--------------------------|--------------------------|---------------------|
--------------------------|--------------------------|---------------------|
--------------------------|--------------------------|--7-7--7--7-7--7--7--|
--6-6---6---6-6---6---6---|--6-6---6---6-6---6---6---|--6-6--6--6-6--6--6--|
--5-5---5---5-5---5---5---|--5-5---5---5-5---5---5---|--5-5--5--5-5--5--5--|
--4-4---4---4-4---4---4---|--4-4---4---4-4---4---4---|--4-4--4--4-4--4--4--|
--3-3---3---3-3---3---3---|--3-3---3---3-3---3---3---|---------------------|


  S A chord diagramE MajorE
---------------------|---------------------|---------------------|
---------------------|---------------------|---------------------|
--7-7--7--7-7--7--7--|--7-7--7--7-7--7--7--|--7-7--7--7-7--7--7--|
--6-6--6--6-6--6--6--|--6-6--6--6-6--6--6--|--6-6--6--6-6--6--6--|
--5-5--5--5-5--5--5--|--5-5--5--5-5--5--5--|--5-5--5--5-5--5--5--|
--4-4--4--4-4--4--4--|--4-4--4--4-4--4--4--|--4-4--4--4-4--4--4--|
---------------------|---------------------|---------------------|


   S  A chord diagramE MajorE  S S S S S S S S S    S  A chord diagramE MajorE  S S S S S S S S S
|--------------------------|--------------------------|
|--------------------------|--------------------------|
|--------------------------|--------------------------|
|--------------------------|--------------------------|
|--------------------------|--------------------------|
|--------------------------|----------------------2-3-|
|--3s-2--0---0-0-0---0---0-|--3s-2--0---0-0-2-3-5-----|


  S  A chord diagramE MajorE  S S S S S S S S S    S  A chord diagramE MajorE  S S S S S S S S S  4x
--------------------------|---------------------------||
--------------------------|---------------------------||
--------------------------|---------------------------||
--------------------------|---------------------------||
--------------------------|---------------------------||
--------------------------|---------------------------||
--3s-2--0---0-0-0---0---0-|--3s-2--0---0-0-2-3-5-3-2--||


  A chord diagramE MajorE  S S S S A chord diagramE MajorE  S S S S     A chord diagramE MajorE   S  S  S  S  A chord diagramE MajorE   S  S  S  S
------------------------|----------------------------------|
--0--0-0-0-0-0--0-0-0-0-|---0---0--0--0--0--0---0--0--0--0-|
------------------------|----------------------------------|
--9--9-9-9-9-9--9-9-9-9-|--11--11-11-11-11-11--11-11-11-11-|
------------------------|----------------------------------|
--7--7-7-7-7-7--7-7-7-7-|---9---9--9--9--9--9---9--9--9--9-|
--0--0-0-0-0-0--0-0-0-0-|---0---0--0--0--0--0---0--0--0--0-|


   A chord diagramE MajorE   S  S  S  S  A chord diagramE MajorE   S  S  S  S     S   S  S  S  S  S  A chord diagramE MajorE   S  S  S  S
----------------------------------|-------------------------------------|
---0---0--0--0--0--0---0--0--0--0-|---0---0--0--0--0--0--0---0--0--0--0-|
----------------------------------|-------------------------------------|
--14--14-14-14-14-14--14-14-14-14-|--13s-14-14-14-14-14-14--14-14-14-14-|
----------------------------------|-------------------------------------|
--12--12-12-12-12-12--12-12-12-12-|--11s-12-12-12-12-12-12--12-12-12-12-|
---0---0--0--0--0--0---0--0--0--0-|---0------0--0--0--0--0---0--0--0--0-|


  A chord diagramE MajorE  S S S S A chord diagramE MajorE  S S S S     A chord diagramE MajorE   S  S  S  S  A chord diagramE MajorE   S  S  S  S
------------------------|----------------------------------|
--0--0-0-0-0-0--0-0-0-0-|---0---0--0--0--0--0---0--0--0--0-|
------------------------|----------------------------------|
--9--9-9-9-9-9--9-9-9-9-|--11--11-11-11-11-11--11-11-11-11-|
------------------------|----------------------------------|
--7--7-7-7-7-7--7-7-7-7-|---9---9--9--9--9--9---9--9--9--9-|
--0--0-0-0-0-0--0-0-0-0-|---0---0--0--0--0--0---0--0--0--0-|


  A chord diagramE MajorE  S S S S A chord diagramE MajorE  S S S S    A chord diagramE MajorE  S S S S A chord diagramE MajorE  S S S S    A chord diagramE MajorE  S S S S A chord diagramE MajorE  S S S S
------------------------|------------------------|------------------------|
--0--0-0-0-0-0--0-0-0-0-|--0--0-0-0-0-0--0-0-0-0-|--0--0-0-0-0-0--0-0-0-0-|
------------------------|------------------------|------------------------|
--9--9-9-9-9-9--9-9-9-9-|--9--9-9-9-9-9--9-9-9-9-|--9--9-9-9-9-9--9-9-9-9-|
------------------------|------------------------|------------------------|
--7--7-7-7-7-7--7-7-7-7-|--7--7-7-7-7-7--7-7-7-7-|--7--7-7-7-7-7--7-7-7-7-|
--0--0-0-0-0-0--0-0-0-0-|--0--0-0-0-0-0--0-0-0-0-|--0--0-0-0-0-0--0-0-0-0-|


   A chord diagramE MajorE   S  S  S  S  A chord diagramE MajorE   S  S  S  S     A chord diagramE MajorE   S  S  S  S  A chord diagramE MajorE   S  S  S  S
----------------------------------|----------------------------------|
---0---0--0--0--0--0---0--0--0--0-|---0---0--0--0--0--0---0--0--0--0-|
----------------------------------|----------------------------------|
--11--11-11-11-11-11--11-11-11-11-|--14--14-14-14-14-14--14-14-14-14-|
----------------------------------|----------------------------------|
---9---9--9--9--9--9---9--9--9--9-|--12--12-12-12-12-12--12-12-12-12-|
---0---0--0--0--0--0---0--0--0--0-|---0---0--0--0--0--0---0--0--0--0-|


   S   S  S  S  S  S  A chord diagramE MajorE   S  S  S  S    A chord diagramE MajorE  S S S S A chord diagramE MajorE  S S S S
-------------------------------------|------------------------|
---0---0--0--0--0--0--0---0--0--0--0-|--0--0-0-0-0-0--0-0-0-0-|
-------------------------------------|------------------------|
--13s-14-14-14-14-14-14--14-14-14-14-|--9--9-9-9-9-9--9-9-9-9-|
-------------------------------------|------------------------|
--11s-12-12-12-12-12-12--12-12-12-12-|--7--7-7-7-7-7--7-7-7-7-|
---0------0--0--0--0--0---0--0--0--0-|--0--0-0-0-0-0--0-0-0-0-|


   A chord diagramE MajorE   S  S  S  S  A chord diagramE MajorE   S  S  S  S    A chord diagramE MajorE  S S S S A chord diagramE MajorE  S S S S
----------------------------------|------------------------|
---0---0--0--0--0--0---0--0--0--0-|--0--0-0-0-0-0--0-0-0-0-|
----------------------------------|------------------------|
--11--11-11-11-11-11--11-11-11-11-|--9--9-9-9-9-9--9-9-9-9-|
----------------------------------|------------------------|
---9---9--9--9--9--9---9--9--9--9-|--7--7-7-7-7-7--7-7-7-7-|
---0---0--0--0--0--0---0--0--0--0-|--0--0-0-0-0-0--0-0-0-0-|


  A chord diagramE MajorE  S S S S A chord diagramE MajorE  S S A chord diagramE MajorE       Q.      S A chord diagramE MajorE  A chord diagramE MajorE  S    A chord diagramE MajorE  S S S S A chord diagramE MajorE  A chord diagramE MajorE  A chord diagramE MajorE   3x
------------------------||--------------------|-----------------------||
--0--0-0-0-0-0--0-0-0\--||--------------------|-----------------------||
------------------------||--------------------|-----------------------||
--9--9-9-9-9-9--9-9-9\--||--------------------|-----------------------||
------------------------||--------------------|-----------------------||
--7--7-7-7-7-7--7-7-7\--||--9\------2-2--2--2-|--2--2-2-2-2-4--5--4---||
--0--0-0-0-0-0--0-0-0\--||--7\------0-0--0--0-|--0--0-0-0-0-2--3--2---||


  Q.      S A chord diagramE MajorE  A chord diagramE MajorE  S    S. H        A chord diagramE MajorE  T
--------------------|-------------------||
--------------------|-------------------||
--------------------|-------------------||
--------------------|-------------------||
--------------------|-------------------||
--9\------2-2--2--2-|--2----------------||
--7\------0-0--0--0-|--0----------------||


Solo:

              |--6--|  |--6--|  |--6--|
      Q.      S  S  S  S  S  S  S  S  S
A chord diagramD#D#||---------19-17-15----------15-17-19-|
A chord diagramA#A#||------------------19-17-16----------|
A chord diagramF#F#||------------------------------------|
A chord diagramC#C#||------------------------------------|
A chord diagramG#G#||------------------------------------|
A chord diagramD#D#||------------------------------------|
A chord diagramA#A#||------------------------------------|


   |--6--|  |--6--|  |--6--|  |--6--|  |--6--|  |--6--|
   S  S  S  S  S  S  S  S  S  S  S  S  S  S  S  S  S  S
--24-19-17-15----------------15-17-19-17-15-------------|
--------------19-17-16-17-19----------------19-17-16-17-|
--------------------------------------------------------|
--------------------------------------------------------|
--------------------------------------------------------|
--------------------------------------------------------|
--------------------------------------------------------|


   |--6--|  |--6--|  |--6--|  |--6--|  |--6--|  |--6--|
   S  S  S  S  S  S  S  S  S  S  S  S  S  S  S  S  S  S
-----15-17-19-24-19-17-15----------------17-15-14-------|
--19----------------------19-17-16-17-19----------17-15-|
--------------------------------------------------------|
--------------------------------------------------------|
--------------------------------------------------------|
--------------------------------------------------------|
--------------------------------------------------------|


   |--6--|  |--6--|  |--6--|  |--6--|  |--6--|  |--6--|
   S  S  S  S  S  S  S  S  S  S  S  S  S  S  S  S  S  S
-----------17-15-14----------------14-15-20-22----------|
--14-15-17----------17-15-14-15-17-------------17-19-20-|
--------------------------------------------------------|
--------------------------------------------------------|
--------------------------------------------------------|
--------------------------------------------------------|
--------------------------------------------------------|


   |--6--|  |--6--|  |--6--|  |--6--|  |--6--|  |----6---|
   S  S  S  S  S  S  S  S  S  S  S  S  S  S  S  S  S  T  T
--17-20-23-20-17-------------------------------------------|
-----------------20-19-17-20-19-17----19-17----------------|
-----------------------------------19-------19-18----------|
--------------------------------------------------19-17----|
--------------------------------------------------------21-|
-----------------------------------------------------------|
-----------------------------------------------------------|


   |--6--|  |--6--|  |--6--|  |--6--|  |--6--|  |--6--|
   S  S  S  S  S  S  S  S  S  S  S  S  S  S  S  S  S  S
--------------------------------------------------------|
--------------------------------------------------------|
--------------------------------------------------------|
--19-17-------17----------------------------------------|
--------21-19----21-19-17-21-19-17-------------17-19-21-|
-----------------------------------19-17-19-21----------|
--------------------------------------------------------|


   |--6--|  |--6--|  |--6--|  |--6--|  |--6--|  |--6--|
   S  S  S  S  S  S  S  S  S  S  S  S  S  S  S  S  S  S
--------------------------------------------------------|
-----------------------19-20-22-20-19-------------------|
--------18-19-18-19-21----------------19-18-------------|
--19-21-------------------------------------21-17-------|
--------------------------------------------------21-19-|
--------------------------------------------------------|
--------------------------------------------------------|


   |--|                         |----3----|
   S  T   T   T  T   T   T  T   T   T  S  S  Q.
--------------------------------------19----19~------|
---------------------------19h-20h-22----22----------|
----------------18h-19h-21---------------------------|
-----17h-19h-21--------------------------------------|
--21-------------------------------------------------|
-----------------------------------------------------|
-----------------------------------------------------|


     W
     Q.      S  S  S  S  S  S
------------------------------|
--<>18-------L----------------|
------------------------16-18-|
---------------16-18-19-------|
------------------------------|
------------------------------|
------------------------------|


             3  3  3 --- |--6--|  |--6--|  |--6--|
   S  S  A chord diagramE MajorE   S  S  T  T  S  S  S  S  S  S  S  S  S
---------------------------------------------------|
-----18-----18----------------18----------------18-|
--19----19-----19-18-16-18-19----19-18--L-18-19----|
---------------------------------------------------|
---------------------------------------------------|
---------------------------------------------------|
---------------------------------------------------|


   T  T  T  T  T  T  T  T  T  T  T  T  T  T  T  T  T  T  T  T  S  S
--------------------------------------------------------------------|
--------------------------------------------------------------------|
--19-18-16-19-18-16----18-16-------16-------------------------------|
--------------------19-------19-18----19-18-16-19-18-16----18-16----|
--------------------------------------------------------20-------20-|
--------------------------------------------------------------------|
--------------------------------------------------------------------|


              W
   |--3--|
   S  S  S    H         A chord diagramE MajorE
----------------------------|
----------------------------|
----------------------------|
--16-------<>15---------L\--|
-----20-18------------------|
----------------------------|
----------------------------|


   |--3-| |--3--|  |--3--|  |--3--|            |------5-----|
   S  S S S  S  S  S  S  S  S  S  S T T  T  T  T   T  T  T  T
------------------10----10p-9---------------------------------|
---------------12----12-------12---------------------------16-|
------------11-------------------11---------------------16----|
----------9-------------------------9----------------16-------|
--------9-----------------------------9-------14h-18----------|
-----10---------------------------------10--------------------|
--12---------------------------------------12-----------------|


   T  T  T  T  T   T   T  T   T  T  T  T  S   T   T   T  T  T  T  T  T  T  T
--14----------------------------------14-15p-14h-15p-14----------------------|
-----16----------------------------17-------------------17----------------15-|
--------16----------------------16-------------------------16----------16----|
-----------16------------14h-17-------------------------------17----16-------|
--------------18p-14h-18-----------------------------------------14----------|
-----------------------------------------------------------------------------|
-----------------------------------------------------------------------------|


   T
   T   T   A chord diagramE MajorE    T  T  T  T  T  T  T  T  T  T  T  T  T  T  T  S.
--24p-19h-24\--14----------------------17-15-14----------------|
------------------15----------------15----------17-15-14-------|
---------------------16----------16----------------------16-15-|
------------------------16----16-------------------------------|
---------------------------14----------------------------------|
---------------------------------------------------------------|
---------------------------------------------------------------|


   Q.      Q      S S     A chord diagramE MajorE    Q.      S   S  A chord diagramE MajorE      H          A chord diagramE MajorE   A chord diagramE MajorE
----------------------|--12----L-----------------|---------------------|
----------------------|--15b---L------15b--L-15--|--14~--------12--14--|
---L-------Lb-----L---|--------------------------|---------------------|
----------------------|--------------------------|---------------------|
----------------------|--------------------------|---------------------|
----------------------|--------------------------|---------------------|
----------------------|--------------------------|---------------------|


                                                          |--3--|
   T   T  T  T  T  T  T  T  T  T  T  T  T  T  T  T  T  T  S  S  S  S
--14s-15-14-12----------------------------------------------12-14-15-|
---------------15-14-12----------------------------12-14-15----------|
------------------------14-12-11----------11-12-14-------------------|
---------------------------------14-12-14----------------------------|
---------------------------------------------------------------------|
---------------------------------------------------------------------|
---------------------------------------------------------------------|


    S  T  T  T  T  T  T  T  T  T  T  T  T  T  T  T  T  T  T  S  S
--/17-15-14----------------------------------------------14-15-17-|
------------17-15-14----------------------------14-15-17----------|
---------------------16-14-12----------12-14-16-------------------|
------------------------------16-14-16----------------------------|
------------------------------------------------------------------|
------------------------------------------------------------------|
------------------------------------------------------------------|


   Q      H
--17b-----L~--------||
--------------------||
--------------------||
--------------------||
--------------------||
--------------------||
--------------------||


Duration 🏷Legend
---------------
W - whole
H - half
Q - quarter
A chord diagramE MajorE - 8th
S - 16th
T - 32nd
X - 64th
. - note dotted
|-n-|  - n-tuplets

Almost there ...

Sign in to get your own page with links to favourite songs and more. You are just one click away...

Login with Facebook Login with Google