Log in

One click and you are in

Login with Facebook Login with Google

Why sign up and log in

Guitar Tabs Explorer
Nena bass tabs for 99 luftballons

Bass tabs

Nena – 99 Luftballons


Intro: when drums start:                4x
G-----|----------------|----------------|
D---2-|*-2----2------2-|--2----2------2*|<-last time open E-string
A-----|*---4----4------|----4----4-----*|
E-----|----------------|-----------0----|
                                  3x
G----------------|-----------6-9\-| |----------------|
D*---------------|---------------*| |----------------|
A*---------------|---------------*| |----------22222-|
E--------------0-|----------------| |----------------|
               S             P P

Verse:                                  10x
G|-------------------|-------------------|
D|*------------------|------------------*|
A|*------------------|-00000000-22222222*|
E|-00000000-22222222-|-------------------|


Bridge:
G-----------|----------------|----------------|----------------|
D-----------|--2----2------2-|--2----2------2-|--2----2--------|
A-----------|----4----4------|----4----4------|----4----4------|
E-----------|-----------0----|----------------|-----------0----|

                          2x
G------------|-------6-9\-||------------|-------2-4--|--------------|
D*-----------|-----------*||------------|------------|--------------|
A*-----------|-----------*||------------|------------|--------22222-|
E----------0-|------------||----------0-|------------|--------------|
           S         P P             S         P P

Verse:                                   4x
G|-------------------|-------------------|
D|*------------------|------------------*|
A|*------------------|-00000000-22222222*|
E|-00000000-22222222-|-------------------|

G|-------------------|-------------------|
D|-------------------|-77777777-99999999-|
A|-77777777-99999999-|-------------------|
E|-------------------|-------------------|

G|-8h9-9-8h9-9-8h9-9-8h9-9-8h9-9-8h9-9-8h9-9-8h9-9-|-9-7-------------|
D|-------------------------------------------------|-----9-8-7-5-----|
A|-------------------------------------------------|-------------7-5-|
E|-------------------------------------------------|-----------------|
                           3x
G|-------------------------| |---------------4-4--4-4---|
D|*----2-----2-----2-----2*| |-----2-----2--------------|
A|*-----------------------*| |-------------2------------|
E|-0-0---0-0---0-0---0-0---| |-0-0---0-0--------------0-|

The outro is without bass, but when the lyrics end a low B is played. It’s

Almost there ...

Sign in to get your own page with links to favourite songs and more. You are just one click away...

Login with Facebook Login with Google