Log in

One click and you are in

Login with Facebook Login with Google

Why sign up and log in

Guitar Tabs Explorer
Nemra guitar tabs for Connection lost

Guitar tabs

Tuning: Perfect Fourth Tuning (A chord diagramE MajorE A chord diagramA majorA A chord diagramD MajorD A chord diagramG MajorG A chord diagramC majorC A chord diagramFF)

"CONNECTION LOST"
by Nemra
tabbed by:    Dropdeee

tuning:       Perfect Fourths (A chord diagramE MajorE A chord diagramA majorA A chord diagramD MajorD A chord diagramG MajorG A chord diagramC majorC A chord diagramFF)
effects:      Lead Electric
video:        https://www.youtube.com/watch v=ynKTRWUVqCo


 Solo 1:

  02:48
F|-----------------------------|-------------------------------|
C|-----------------------------|-------------------------------|
G|-9~-----7------6------7------|-9~------7------6------7-----/-|
D|-----------------------------|-------------------------------|
A|-----------------------------|-------------------------------|
E|-----------------------------|-------------------------------|

F|-------------------------------|-----------------------------|
C|-------------------------------|-----------------------------|
G|-12------11-----\9----\-7-----\|-6h7-7-----------------------|
D|-------------------------------|-----------------------------|
A|-------------------------------|-----------------------------|
E|-------------------------------|-----------------------------|

F|-----------------------------|-------------------------------|
C|-----------------------------|-------------------------------|
G|-9~-----7------6------7------|-9fb--------9hb-7-9fb-9~-------|
D|-----------------------------|-------------------------------|
A|-----------------------------|-------------------------------|
E|-----------------------------|-------------------------------|

F|-----------------|-----------------|-----------------|------------------|----------------------------|
C|-----------------|-----------------|-----------------|------------------|----------------------------|
G|-11-12-11-9------|-11-12-11-9------|-11-12-11-9------|-11-12-11-9-------|-9fb----9hb-----------------|
D|------------12-11|------------12-11|------------11-12|------------11-12-|--------------12-11---------|
A|-----------------|-----------------|-----------------|------------------|----------------------------|
E|-----------------|-----------------|-----------------|------------------|----------------------------|
       PM*  * *  *   *  *     * *  *            * *  *

F|-----------------------------------------------------|
C|-----------------------------------------------------|
G|-------------------7-----7--9fb-9--7-----------------|
D|-9~----------7--9-----9---------------9~-------------|
A|-----------------------------------------------------|
E|-----------------------------------------------------|
            PM *  *  *  *  *

F|------------------------------------------------------------------------|
C|------------------------------------------------------------------------|
G|-----7-----7--7fb-----6-6---6-7-9~---7\6-6----7p6-6~--------------------|
D|-7-9----9---------------------------------------------------------------|
A|------------------------------------------------------------------------|
E|------------------------------------------------------------------------|

 Solo 2:

  04:40
F|--------------------------------|---------------------------------|
C|-9---9---9---9---9---9---9---9--|-9---9---9---9---9---9---9---9--|
G|-9fb-9fb-9fb-9fb-9fb-9fb-9fb-9fb|-9fb-9fb-9fb-9fb-9fb-9fb-9fb-9fb-|
D|--------------------------------|---------------------------------|
A|--------------------------------|---------------------------------|
E|--------------------------------|---------------------------------|

F|--------------------------------|---------------------------------|
C|-9---9---9---9---9---9---9---9--|-9---9---9---9---9---9---9---9---| fade out
G|-9fb-9fb-9fb-9fb-9fb-9fb-9fb-9fb|-9fb-9fb-9fb-9fb-9fb-9fb-9fb-9fb-| on the
D|--------------------------------|---------------------------------| last 8
A|--------------------------------|---------------------------------| notes
E|--------------------------------|---------------------------------|

...lost    connection    in    my    head...                  I've
F|--------------------------------|--------------------------------|  -|
C|--------------------------------|--------------------------------|   |
G|--------------------------------|--------------------------------|   |
D|-9-9-9-9-9-9-9-9-9-9-9-9-9-9-9-9-9-9-9-9-9-9-9-9-9-9-9-9-9-9-9-9-|   |
A|--------------------------------|--------------------------------|   |
E|--------------------------------|--------------------------------|   |
                                                                       |
...lost    connection    in    my    head...                  I've     |
F|--------------------------------|--------------------------------|   |
C|--------------------------------|--------------------------------|   | x2
G|-7-7-7-7-7-7-7-7-7-7-7-7-7-7-7-7-7-7-7-7-7-7-7-7-7-7-7-7-7-7-7-7-|   |
7|--------------------------------|--------------------------------|   |
A|--------------------------------|--------------------------------|   |
E|--------------------------------|--------------------------------|   |
                                                                       |
...lost    connection...                in    my    head through your  |
F|-------------------------------------------------|----------------|  |
C|-------------------------------------------------|----------------|  |
G|-9-9-9-9-9-9-9-9-9-9-9-9-9-9-9-9-9-9-9-9-9-9-9-9-|7-7-7-7-7-7-7-7-|  |
D|-------------------------------------------------|----------------|  |
A|-------------------------------------------------|----------------|  |
E|-------------------------------------------------|----------------|  |
                                                                       |
      heart...                                                         |
F|-----------------------------------------------------------------|   |
C|-----------------------------------------------------------------|   |
G|-6-6-6-6-6-6-6-6-6-6-6-6-6-6-6-6-6-6-6-6-6-6-6-6-6-6-6-6-6-6-6-6-|   |
D|-----------------------------------------------------------------|   |
A|-----------------------------------------------------------------|   |
E|-----------------------------------------------------------------|  -|


F|-------------|
C|-------------|
G|----11/16\11-| x15
D|-9-----------|
A|-------------|
E|-------------|

F|-------------|
C|-------------|
G|----11/15-16-|
D|-9-----------|
A|-------------|
E|-------------|

F|----------------------------------------------| |------|
C|-16fb--16fb--16fb--16fb--16fb--16fb--16fb-----| |-16fb-|
G|-------------------------------------------16-| |------|x24
D|----------------------------------------------| |------|
A|----------------------------------------------| |------|
E|----------------------------------------------| |------|

F|-----------------------|
C|--------------------11-|
G|-9-11-12-11-9-11-12----|
D|-----------------------|x4
A|-----------------------|
E|-----------------------|

F|----------------------|-------------------------|-----------------------|-----------------------|
C|----------------------|-------------------------|-----------------------|-----------------------|
G|-12-11-9-11-9----9----|g11/12-11-9-11-9----9----|-----------------------|-------9---------------|
D|--------------12---12-|-----------------12---12-|-11-12-11-9-11-12-11-9-|-11-12---12-11-12-11-9-|
A|----------------------|-------------------------|-----------------------|-----------------------|
E|----------------------|-------------------------|-----------------------|-----------------------|

F|-----------------------13-----------------------13-|---------------------14-----------------------13-|
C|-/11-13-14-13-11-13-14-----11-13-14-13-11-13-14----|11-13-14-13-11-13-14-----11-13-14-13-11-13-14----|
G|---------------------------------------------------|-------------------------------------------------|
D|---------------------------------------------------|-------------------------------------------------|
A|---------------------------------------------------|-------------------------------------------------|
E|---------------------------------------------------|-------------------------------------------------|

F|-14-13-11-13-14-13-11-----13-14-13-11-13-11-------|------------------------------------------------|
C|----------------------14--------------------14-13-|13-14-13-11-13-14-13-11-11~--13-14-13-14-13-11--|
G|--------------------------------------------------|------------------------------------------------|
D|--------------------------------------------------|------------------------------------------------|
A|--------------------------------------------------|------------------------------------------------|
E|--------------------------------------------------|------------------------------------------------|

  06:20
F|------------------------------------|----------------------------------------|
C|-11~--9-11-9--11---9-11-11/13-13/14-|-9---11-11--9---11~---11-13-13/14-14/16-|
G|------------------------------------|----------------------------------------|
D|------------------------------------|----------------------------------------|
A|------------------------------------|----------------------------------------|
E|------------------------------------|----------------------------------------|

F|------------------------------------|------------13----------13----------13-------------|
C|-16~---14-13-\-11--16~--14-13-\-11-\|10-10-11-13----10-11-13----10-11-13----10-11-13-13-|
G|------------------------------------|---------------------------------------------------|
D|------------------------------------|---------------------------------------------------|
A|------------------------------------|---------------------------------------------------|
E|------------------------------------|---------------------------------------------------|

F|------------------------------------|-------------------------------------------|
C|-13----14-14--13--14----14-14-14-13-|-14fb---14-13-14-13-14-14fb---14-13-14-13--|
G|------------------------------------|-------------------------------------------|
D|------------------------------------|-------------------------------------------|
A|------------------------------------|-------------------------------------------|
E|------------------------------------|-------------------------------------------|

F|-----------------------------------------------------------------------------------------------|
C|-16fb---g16rb-14-14-13----16fb---g16rb-14-14-13-13-13---11-11-10-10-11-13-13br--11--10--11-13--|
G|-----------------------------------------------------------------------------------------------|
D|-----------------------------------------------------------------------------------------------|
A|-----------------------------------------------------------------------------------------------|
E|-----------------------------------------------------------------------------------------------|

F|----------------------------------|------------------------------------|
C|-11~--10-11~----9-11-9~--11---9-11|11fbr--9-11~--9-11~--9-11~--9-11-11-|
G|----------------------------------|------------------------------------|
D|----------------------------------|------------------------------------|
A|----------------------------------|------------------------------------|
E|----------------------------------|------------------------------------|

F|-9~--9-9~--9-9---------------------------------------------------------------|
C|--------------h11-11\9--9\7--7\6--6------------------------------------------|
G|-----------------------------------h9--9\7--7\6--6h9--9\7--7\6--6------------|
D|------------------------------------------------------------------9--9\7--9--|
A|-----------------------------------------------------------------------------|
E|-----------------------------------------------------------------------------|

  07:03
F|------------------------------|---------------------------------------------|
C|------------------------------|---------------------------------------------|
G|-----------7---7-9hb-7~---9-7-|-9hbr-9hbr-9hbr---7-9-9hbrp7h9hbr~-------7-9-|
D|-9~~--------h9----------------|---------------------------------------------|
A|-------9----------------------|---------------------------------------------|
E|------------------------------|---------------------------------------------|

F|--------------------------------|---------------------------------|
C|--------------------------------|---------------------------------|
G|-9fb----9-7-6-7-6---6-------6-7-|---6-6---6-------6-7-6-7-9-7-6-7-|
D|------------------9---9-8-9-----|-9-----9---9-8-9-----------------|
A|--------------------------------|---------------------------------|
E|--------------------------------|---------------------------------|

F|---------------------------------------|----------------------------------------|
C|---------------------------------------|----------------------------------------|
G|-7--7----9-/11--6h7-7---6-7-11-9-------|--------------------------------9-------|
D|---------------------------------12-11-|-12~---12---11-12---12-11-12-12---12-11-|
A|---------------------------------------|----------------------------------------|
E|---------------------------------------|----------------------------------------|

F|----------------------------------------|----------------------------------------|
C|----------------------------------------|----------------------------------------|
G|-12h14--\12--11h12----11-12-12-14-12-11-|-12h14--\12--11h12----11-12-12-14-12-11-|
D|----------------------------------------|----------------------------------------|
A|----------------------------------------|----------------------------------------|
E|----------------------------------------|----------------------------------------|

F|-----------------------------------------------------|---------------------------|
C|-----------------------------------------------------|---------------------------|
G|-----11----------------------------------------------|---------------------------|
D|-14------12h14p12-----12-14hbr-hbr--12h14p12---11-11-|11-------------------------|
A|-----------------------------------------------------|---------------------------|
E|-----------------------------------------------------|---------------------------|

F|--------------------------------------------------------------------|
C|--------------------------------------------------------------------|
G|-9-9-9-9-9-9-9-9--7-7-7-7-7-7-7-7--6-6-6-6-6-6-6-6--7-7-7-7-7-7-7-7-| x2
D|--------------------------------------------------------------------|
A|--------------------------------------------------------------------|
E|--------------------------------------------------------------------|

F|--------------------------------------------------------------------|
C|-7-7-7-7-7-7-7-7--6-6-6-6-6-6-6-6-----------------------------------|
G|-----------------------------------9-9-9-9-9-9-9-9--7-7-7-7-7-7-7-7-|
D|--------------------------------------------------------------------|
A|--------------------------------------------------------------------|
E|--------------------------------------------------------------------|

F|-----------------------------------------------------------------|
C|-----------------------------------------------------------------|
G|-6-6-6-6-6-6-6-6-6-6-6-6-6-6-6-6-6-6-6-6-6-6-6-6-6-6-6-6-6-6-6-6-|
D|-----------------------------------------------------------------|
A|-----------------------------------------------------------------|
E|-----------------------------------------------------------------|

F|----------------------------|----------------------|
C|----------------------------|----------------------|
G|-9------7------6------7-----|9fb----9--7--9-9------|
D|----------------------------|----------------------|
A|----------------------------|----------------------|
E|----------------------------|----------------------|

F|----------------------------|---------------------------------|
C|----------------------------|---------------------------------|
G|-9------7------6------7-----|-6-----------------6-------------|
D|----------------------------|-------9-----8----------------9--|
A|----------------------------|---------------------------------|
E|----------------------------|---------------------------------|


 Outro:

  Guitar 1
F|-----------------------------------------------------------------------|
C|-----------------------------------------------------------------------|
G|-9fb--~~-rb--7--9--7~----7-----7-----7~~-------------------------------|
D|----------------------9-----9-----9-----------------9-------------9\---|
A|----------------------------------------------------9------------------|
E|----------------------------------------------------7------------------|

  Guitar 2
F|-----------------------------------------------------------------------|
C|-----------------------------------------------------------------------|
G|------------7-9--9b-9-7------------------------------------------------|
D|-------7/9-------------7h9-7tr9-(finish-on)-7~~-----9------------------|
A|----------------------------------------------------9------------------|
E|--5/7-----------------------------------------------7------------------|

  Guitar 3
F|-----------------------------------------------------------------------|
C|-----------------------------------------------------------------------|
G|-------------------------------9fb~~~----------------------------------|
D|----------------------------------------------------9------------------|
A|----------------------------------------------------9------------------|
E|----------------------------------------------------7------------------|


************************************

| tr   Trill
| h    Hammer-on
| p    Pull-off
| ~    Vibrato
| /    Slide up
| \    Slide down
| b    Bend
| hb   Half-bend
| fb   Full bend
| rb   Release bend
| hbr  Half-Bend then release
| fbr  Full-Bend then release
| fbrp Full-bend then release and pull off

***************************

Other versions of Connection Lost

Connection lostChords

Almost there ...

Sign in to get your own page with links to favourite songs and more. You are just one click away...

Login with Facebook Login with Google