Search tabs and chords

Search for song, artist or band

Log in

One click and you are in

Login with Facebook Login with Google

Why sign up and log in

Guitar Tabs Explorer
Willie Nelson guitar chords for Aint goin back to broke back mountain

Ain't Goin Back To Broke Back Mountain chords by Willie Nelson

Willie Nelson guitar chords for Aint goin back to broke back mountain

Guitar chords with lyrics

Intro:
B chord diagramBB

Verse:
B chord diagramBB                                                         F# chord diagramF#F#                B chord diagramBB
Why. I've been up the Chisholm trail   Been through death Valley Hot as hell
B chord diagramBB                                                        F# chord diagramF#F#              B chord diagramBB
I rode across the dusty plains,  There's cowboy runnin' through my veins

B chord diagramBB
But I aint' goin' down on Brokeback mountain
B chord diagramBB
No I aint' goin' down on Brokeback mountain

B chord diagramBB                                        F# chord diagramF#F#
That S**t ain't right   (That S**t ain't right)
                B chord diagramBB
That S**t ain't right   (That S**t ain't right)

B chord diagramBB                                                                   F# chord diagramF#F#         B chord diagramBB
Why I've watched the herd from dusk till dawn  But I did it with my britches on
B chord diagramBB                                                              F# chord diagramF#F#         B chord diagramBB
You can have a chew you can bum a smoke  But don't go reaching for my rope

B chord diagramBB
I aint' goin' down on Brokeback mountain
B chord diagramBB
No I aint' goin' down on Brokeback mountain
B chord diagramBB                                      F# chord diagramF#F#
That S**t ain't right (That S**t ain't right)
                B chord diagramBB
That S**t ain't right (That S**t ain't right}

  Harmonica Solo for guitar
e|-11-?14--14--11-14-16-14-11-14-14----19-14-11--14-11---11---|
B|----------------------------------------------------14---12-|
G|------------------------------------------------------------|
D|------------------------------------------------------------|
A|------------------------------------------------------------|
E|------------------------------------------------------------|

Harmonica solo for the harmonic  (B chord diagramBB harmonica)
5  6  6  5  6  6  6  5  6  6  7  6  5  6  5  4  5  4
B chord diagramBB  B chord diagramBB  B chord diagramBB  B chord diagramBB  B chord diagramBB  D chord diagramDD  B chord diagramBB  B chord diagramBB  B chord diagramBB  B chord diagramBB  B chord diagramBB  B chord diagramBB  B chord diagramBB  B chord diagramBB  B chord diagramBB  D chord diagramDD  B chord diagramBB  B chord diagramBB

  Guitar Solo
e|-------------------------------------------8------|
B|-------------------------7-7-6-5-4----------------|
G|--4-4--7--4-4-4-4-4-7-4-------------7-6-4---------|
D|--------------------------------------------------|
A|--------------------------------------------------|
E|--------------------------------------------------|

  B chord diagramBB
  Whoa Willie that last note sounded a might queer
e|---------------------------------------------------|
B|----------------------3h4----------------------3h4-|
G|---------------------------------------------------|
D|---------------------------------------------------|
A|---------------------------------------------------|
E|---------------------------------------------------|

Bridge:
           G#m chord diagramG#mG#m                 F# chord diagramF#F#         E chord diagramEE
           What you do is your business hoss
e|--------------------------------------------------|
B|--------------------------------------------------|
G|---------4----------------------------------------|
D|---------6----------------------------------------|
A|---------6----------------------------------------|
E|-6-7-6---4----------------------------------0-2-4-|

G#m chord diagramG#mG#m                   E chord diagramEE         F# chord diagramF#F#
You can buy me a beer then f**k off
B chord diagramBB
But I aint' goin' down on Brokeback mountain
B chord diagramBB
No I aint' goin' down on Brokeback mountain
B chord diagramBB                                      F# chord diagramF#F#
That S**t ain't right (That S**t ain't right)
                B chord diagramBB
That S**t ain't right (That S**t ain't right)
B chord diagramBB                                      F# chord diagramF#F#
That S**t ain't right (That S**t ain't right)
                B chord diagramBB
That S**t ain't right (That S**t ain't right)
B chord diagramBB                                      F# chord diagramF#F#
That S**t ain't right (That S**t ain't right)
                B chord diagramBB
That S**t ain't right (That S**t ain't right)

B chord diagramBB        B chord diagramBB        B chord diagramBB  F# chord diagramF#F# B chord diagramBB

Almost there ...

Sign in to get your own page with links to favourite songs and more. You are just one click away...

Login with Facebook Login with Google