Search tabs and chords

Search for song, artist or band

Log in

One click and you are in

Login with Facebook Login with Google

Why sign up and log in

Guitar Tabs Explorer
Ricky Nelson bass tabs for For your sweet love

For Your Sweet Love bass tab by Ricky Nelson

Ricky Nelson bass tabs for For your sweet love

Bass tabs

Tabbed by: 6METAL6BASSIST6
E-mail: petergriffinav@gmail.com

Tuning: EADG

G|------------|
D|------------|
A|--------2---|
E|3---5-------|

G|----------------------------------------------------------------|
D|------------5-----------5---6---7-----------------------7---\---|
A|3-------------------3-----------------------7-------7-----------|
E|----------------------------------------------------------------|

G|----------------------------------------------------------------|
D|------------5-----------5---6---7-----------------------7---\---|
A|3-------------------3-----------------------7-------------------|
E|----------------------------------------------------------------|

0:10

G|----------------------------------------------------------------|
D|------------5-----------5---6---7-----------------------7---\---|
A|3-------------------3-----------------------7-------------------|
E|----------------------------------------------------------------|

G|----------------------------------------------------------------|
D|------------5-----------5---6---7-----------------------7---\---|
A|3-------------------3-----------------------7-------7-----------|
E|----------------------------------------------------------------|

G|----------------------------------------------------------------|
D|------------5---------------2---3-----------------------3-------|
A|3-------------------3---5-------------------3-------------------|
E|----------------------------------------------------------------|

G|----------------------------------------------------------------|
D|------------2-----------------------5---5---5---5---5---5---5---|
A|3-----------------------3---------------------------------------|
E|----------------------------------------------------------------|

0:26

G|----------------------------------------------------------------|
D|------------5-----------5---6---7-----------------------7---\---| x2
A|3-------------------3-----------------------7-------------------|
E|----------------------------------------------------------------|

G|----------------------------------------------------------------|
D|------------5---------------2---3-----------------------3-------|
A|3-------------------3---5-------------------3-------------------|
E|----------------------------------------------------------------|

G|----------------------------------------------------------------|
D|----------------5-----------------------2-------5-------2-------|
A|3-------------------------------3-------------------------------|
E|----------------------------------------------------------------|

0:42

G|--------------------------------------------4-------------------|
D|3-----------------------3-------2-----------------------2-------|
A|------------3---------------------------------------------------|
E|----------------------------------------------------------------|

G|----------------------------------------------------------------|
D|------------7-------------------------------5---------------2---|
A|5-----------------------5-------3-------------------3---5-------|
E|----------------------------------------------------------------|

G|--------------------------------------------4-------------------|
D|3-----------------------3-------2-----------------------2-------|
A|------------3---------------------------------------------------|
E|----------------------------------------------------------------|

G|----------------------------------------------------------------|
D|------------7-------------------5---5---3---3---2---2-----------|
A|5-----------------------5-------------------------------5---5---|
E|----------------------------------------------------------------|

0:58

G|----------------------------------------------------------------|
D|------------5-----------5---6---7-----------------------7---\---| x2
A|3-------------------3-----------------------7-------------------|
E|----------------------------------------------------------------|

G|----------------------------------------------------------------|
D|------------5---------------2---3-----------------------3-------|
A|3-------------------3---5-------------------3-------------------|
E|----------------------------------------------------------------|

G|----------------------------------------------------------------|
D|------------2-----------5-----------5---5---5---5---5---5---5---|
A|3-------------------------------3-------------------------------|
E|----------------------------------------------------------------|

1:14

G|----------------------------------------------------------------|
D|------------5-----------5---6---7-----------------------7---\---| x2
A|3-------------------3-----------------------7-------------------|
E|----------------------------------------------------------------|

G|----------------------------------------------------------------|
D|------------5---------------2---3-----------------------3-------|
A|3-------------------3---5-------------------3-------------------|
E|----------------------------------------------------------------|

G|----------------------------------------------------------------|
D|------------2-----------5---------------2---2---5---5---2---2---|
A|3-------------------------------3---3---------------------------|
E|----------------------------------------------------------------|

1:29

G|--------------------------------------------4-------------------|
D|3-----------------------3-------2-----------------------2-------|
A|------------3---------------------------------------------------|
E|----------------------------------------------------------------|

G|----------------------------------------------------------------|
D|------------7-------------------------------5---------------2---|
A|5-----------------------5-------3-------------------3---5-------|
E|----------------------------------------------------------------|

G|--------------------------------------------4-------------------|
D|3-----------------------3-------2-----------------------2-------|
A|------------3---------------------------------------------------|
E|----------------------------------------------------------------|

G|----------------------------------------------------------------|
D|------------7-------------------5---5---3---3---2---2-----------|
A|5-----------------------5-------------------------------5---5---|
E|----------------------------------------------------------------|

1:45

G|----------------------------------------------------------------|
D|------------5-----------5---6---7-----------------------7---\---| x2
A|3-------------------3-----------------------7-------------------|
E|----------------------------------------------------------------|

G|----------------------------------------------------------------|
D|------------5---------------2---3-----------------------3-------|
A|3-------------------3---5-------------------3-------------------|
E|----------------------------------------------------------------|

Until fadeout.

G|----------------------------------------------------------------|
D|------------5-----------5---6---7-----------------------7---\---|
A|3-------------------3-----------------------7-------------------|

Almost there ...

Sign in to get your own page with links to favourite songs and more. You are just one click away...

Login with Facebook Login with Google