Search tabs and chords

Search for song, artist or band

Log in

One click and you are in

Login with Facebook Login with Google

Why sign up and log in

Guitar Tabs Explorer
Ricky Nelson bass tabs for Down along the bayou country

Down Along The Bayou Country bass tab by Ricky Nelson

Ricky Nelson bass tabs for Down along the bayou country

Bass tabs

Tuning: Standard (E A D G)

Difficulty: Novice

G|----------------------------------------------------------------|
D|7---------------------------------------------------------------|
A|----------------7-------------------------------7---------------|
E|--------------------------------5-------------------------------|

G|--------------------------------|
D|7-------------------------------|
A|----------------7---------------|
E|--------------------------------|

G|----------------------------------------------------------------|
D|----------------------------------------------------------------|
A|5-------------------------------5-------------------------------|
E|----------------5-------------------------------5---------------|

0:10

G|----------------------------------------------------------------|
D|----------------7-------------------------------7---------------|
A|5-------------------------------5-------------------------------|
E|----------------------------------------------------------------|

G|----------------------------------------------------------------|
D|----------------7-----------------------------------------------|
A|5-----------------------------------------------7---------------|
E|--------------------------------5-------------------------------|

G|----------------------------------------------------------------|
D|----------------------------------------------------------------|
A|----------------7-------------------------------7---------------|
E|5-------------------------------5-------------------------------|

G|----------------------------------------------------------------|
D|------------------------------------------------7---------------|
A|----------------7---------------5-------------------------------|
E|5---------------------------------------------------------------|

0:23

G|----------------------------------------------------------------|
D|----------------7-------------------------------7---------------|
A|5-------------------------------5-------------------------------|
E|----------------------------------------------------------------|

G|7---------------------------------------------------------------|
D|----------------7-----------------------------------------------|
A|------------------------------------------------7---------------|
E|--------------------------------5-------------------------------|

G|----------------------------------------------------------------|
D|----------------------------------------------------------------|
A|------------4-----------7-------------------4-----------7-------|
E|5-------------------------------5-------------------------------|

G|------------------------------------------------7---------------|
D|----------------------------------------7---------------7-------|
A|------------4-----------7-------5-------------------------------|
E|5---------------------------------------------------------------|

0:37

G|----------------5-------------------------------5---------------|
D|5-------------------------------5-------------------------------| x2
A|----------------------------------------------------------------|
E|----------------------------------------------------------------|

G|----------------------------------------------------------------|
D|5-------------------------------5-------------------------------|
A|----------------3-------------------------------3-------2-------|
E|----------------------------------------------------------------|

G|----------------------------------------------------------------|
D|----------------------------------------------------------------|
A|--------------------------------5---------------5---------------|
E|5---------------5---------------------------------------5-------|

0:51

G|----------------------------------------------------------------|
D|----------------7-------------------------------7---------------|
A|5-------------------------------5-------------------------------|
E|----------------------------------------------------------------|

G|7---------------------------------------------------------------|
D|----------------7-----------------------------------------------|
A|------------------------------------------------7---------------|
E|--------------------------------5-------------------------------|

G|----------------------------------------------------------------|
D|----------------------------------------------------------------|
A|------------4-----------7-------------------4-----------7-------|
E|5-------------------------------5-------------------------------|

G|------------------------------------------------7---5---4-------|
D|----------------------------------------4---7---------------7---|
A|------------4-----------7-------5-------------------------------|
E|5---------------------------------------------------------------|

1:05

G|----------------5-------------------------------5---------------|
D|5-------------------------------5-------------------------------|
A|----------------------------------------------------------------|
E|----------------------------------------------------------------|

G|----------------5-------------------------------5---------------|
D|5-----------5-------------------5-------------------------------|
A|----------------------------------------------------------------|
E|----------------------------------------------------------------|

G|----------------------------------------------------------------|
D|5-------------------------------5-------------------------------|
A|----------------3-------------------------------3-------2-------|
E|----------------------------------------------------------------|

G|----------------------------------------------------------------|
D|----------------------------------------------------------------|
A|--------------------------------5---------------5-------2---4---|
E|5---------------5-----------------------------------5-----------|

1:19

G|----------------------------------------------------------------|
D|----------------7-------------------------------7---------------|
A|5-------------------------------5-------------------------------|
E|----------------------------------------------------------------|

G|7---------------------------------------------------------------|
D|----------------7-----------------------------------------------|
A|------------------------------------------------7---------------|
E|--------------------------------5-------------------------------|

G|----------------------------------------------------------------|
D|----------------------------------------------------------------|
A|------------4-----------7-------------------4-----------7-------|
E|5-------------------------------5-------------------------------|

G|----------------------------------------------------------------|
D|----------------------------------------------------------------|
A|------------4-----------7-------5-----------------------5-------|
E|5-----------------------------------------------5---------------|

G|----------------------------------------------------------------|
D|7-------------------------------7---------------------------5---|
A|----------------7-------------------------------7---------------|
E|----------------------------------------------------------------|

G|----------------------------------------------------------------|
D|7-------5-------4-----------------------------------------------|
A|------------------------7-------5-------------------------------|
E|------------------------------------------------5---------------|

1:39

G|----------------------------------------------------------------|
D|----------------7-------------------------------7---------------|
A|5-------------------------------5-------------------------------|
E|----------------------------------------------------------------|

G|----------------------------------------------------------------|
D|----------------7-----------------------------------------------|
A|5-----------------------------------------------7---------------|
E|--------------------------------5-------------------------------|

G|----------------------------------------------------------------|
D|----------------------------------------------------------------|
A|------------4-----------7-------------------4-----------7-------|
E|5-------------------------------5-------------------------------|

G|----------------------------------------------------------------|
D|----------------------------------------------------------------|
A|------------4-----------7-------5-------------------------------|
E|5-----------------------------------------------5---------------|

1:53

G|----------------------------------------------------------------|
D|7---------------------------5---7---------------------------4---|
A|----------------7-------------------------------7---------------|
E|----------------------------------------------------------------|

G|--------------------------------|
D|7-------5-------4---------------|
A|------------------------7-------|
E|--------------------------------|

G|----------------------------------------------------|
D|----------------------------------------------------|
A|5-------------------------------5---------------5---|
E|----------------5-----------------------5-----------|

Almost there ...

Sign in to get your own page with links to favourite songs and more. You are just one click away...

Login with Facebook Login with Google