Log in

One click and you are in

Login with Facebook Login with Google

Why sign up and log in

Guitar Tabs Explorer
Ricky Nelson bass tabs for Be my love

Bass tabs

Tabbed by: 6METAL6BASSIST6
E-mail: petergriffinav@gmail.com


Tuning: EADG

G|----------------------------------------------------------------|
D|3-----------3-------------------3-----------3-------------------|
A|----------------3-----------3-------------------3-----------3---|
E|----------------------------------------------------------------|

G|----------------------------------------------------------------|
D|3-----------3-------------------3-----------------------2-------|
A|----------------3-----------3-----------3-------5---------------|
E|----------------------------------------------------------------|

0:10

G|----------------------------------------------------------------|
D|3-----------3-------------------3-----------3-----------3-------|
A|----------------3-----------3-------------------3---------------|
E|----------------------------------------------------------------|

G|----------------------------------------------------------------|
D|------------------------2-------------------------------2-------|
A|----------------4-------------------------------4---------------|
E|5-----------5-------------------5-----------5-------------------|

G|----------------------------------------------------------------|
D|----------------7-----------7-------------------7---------------|
A|5-----------5-------------------5-----------5-----------5-------|
E|----------------------------------------------------------------|

G|----------------------------------------------------------------|
D|----------------9---------------7-----------7-----------7-------|
A|7-----------7-----------7-----------------------7---------------|
E|----------------------------------------------------------------|

0:27

G|----------------------------------------------------------------|
D|4-----------4---5---------------5-----------5-----------5-------|
A|----------------------------5-------------------5---------------|
E|----------------------------------------------------------------|

G|----------------------------------------------------------------|
D|6-----------6---7-----------7-\-3---------------3---------------|
A|--------------------------------------------3-----------3-------|
E|----------------------------------------------------------------|

G|----------------------------------------------------------------|
D|----------------7---------------5-----------5-----------5-------|
A|5-----------5-----------7-----------------------5---------------|
E|----------------------------------------------------------------|

G|----------------------------------------------------------------|
D|----------------------------5---------------------------2-------|
A|1-----------1---3---------------3-------3-------5---------------|
E|----------------------------------------------------------------|

0:44

G|----------------------------------------------------------------|
D|3-----------3-------------------3-----------3-----------3-------|
A|----------------3-----------3-------------------3---------------|
E|----------------------------------------------------------------|

G|----------------------------------------------------------------|
D|------------------------2-------------------------------2-------|
A|----------------4-------------------------------4---------------|
E|5-----------5-------------------5-----------5-------------------|

G|----------------------------------------------------------------|
D|----------------7-----------7-------------------7---------------|
A|5-----------5-------------------5-----------5-----------5-------|
E|----------------------------------------------------------------|

G|----------------------------------------------------------------|
D|----------------9---------------7-----------7-----------7-------|
A|7-----------7-----------7-----------------------7---------------|
E|----------------------------------------------------------------|

1:01

G|----------------------------------------------------------------|
D|4-----------4---5---------------5-----------5-----------5-------|
A|----------------------------5-------------------5---------------|
E|----------------------------------------------------------------|

G|----------------------------------------------------------------|
D|6-----------6---7-----------7-\-3---------------3-------3---4---|
A|--------------------------------------------3-------------------|
E|----------------------------------------------------------------|

G|----------------------------------------------------------------|
D|5-----------5-----------5-----------------------5---------------|
A|----------------5---------------3-----------3-----------3-------|
E|----------------------------------------------------------------|

G|----------------------------------------------------------------|
D|----------------8-------------------------------7---------------|
A|6-----------6-----------6-------5-----------5-----------5-------|
E|----------------------------------------------------------------|

1:18

G|----------------------------------------------------------------|
D|5-----------5-----------5-----------------------5---------------|
A|----------------5---------------3-----------3-----------3-------|
E|----------------------------------------------------------------|

G|----------------------------------------------------------------|
D|3-----------3-------------------3-----------------------2-------|
A|----------------3-----------3-----------3-------5---------------|
E|----------------------------------------------------------------|

1:27

G|----------------------------------------------------------------|
D|3-----------3-------------------3-----------3-----------3-------|
A|----------------3-----------3-------------------3---------------|
E|----------------------------------------------------------------|

G|----------------------------------------------------------------|
D|------------------------2-------------------------------2-------|
A|----------------4-------------------------------4---------------|
E|5-----------5-------------------5-----------5-------------------|

G|----------------------------------------------------------------|
D|----------------7-----------7-------------------7---------------|
A|5-----------5-------------------5-----------5-----------5-------|
E|----------------------------------------------------------------|

G|----------------------------------------------------------------|
D|----------------9---------------7-----------7-----------7-------|
A|7-----------7-----------7-----------------------7---------------|
E|----------------------------------------------------------------|

1:44

G|----------------------------------------------------------------|
D|4-----------4---5---------------5-----------5-----------5-------|
A|----------------------------5-------------------5---------------|
E|----------------------------------------------------------------|

G|----------------------------------------------------------------|
D|6-----------6---7-----------7-\-3---------------3-------3---4---|
A|--------------------------------------------3-------------------|
E|----------------------------------------------------------------|

G|----------------------------------------------------------------|
D|5-----------5-----------5-----------------------5---------------|
A|----------------5---------------3-----------3-----------3-------|
E|----------------------------------------------------------------|

G|----------------------------------------------------------------|
D|----------------8-------------------------------7---------------|
A|6-----------6-----------6-------5-----------5-----------5-------|
E|----------------------------------------------------------------|

G|----------------------------------------------------------------|
D|5-----------5-----------5---------------------------------------|
A|----------------5---------------3---------------3---------------|
E|----------------------------------------------------------------|

2:05

G|----------------------------------------------------------------|
D|3-----------3-------------------3-----------3-------------------|
A|----------------3-----------3-------------------3-----------3---|
E|----------------------------------------------------------------|

G|----------------------------------------------------------------|
D|3-----------3-------------------3-------------------------------|
A|----------------3-----------3-----------8-\---------------------|

Almost there ...

Sign in to get your own page with links to favourite songs and more. You are just one click away...

Login with Facebook Login with Google