Search tabs and chords

Search for song, artist or band

Log in

One click and you are in

Login with Facebook Login with Google

Why sign up and log in

Guitar Tabs Explorer
Ricky Nelson bass tabs for A legend in my time

A Legend In My Time bass tab by Ricky Nelson

Ricky Nelson bass tabs for A legend in my time

Bass tabs

Tabbed by: 6METAL6BASSIST6
E-mail: petergriffinav@gmail.com

Tuning: EADG

G|------------------------------------------------------------------------|
D|3-----------------------------------3-----------------------------------|
A|------------------------------------------------------------------------|
E|------------------------------------------------------------------------|

G|------------------------------------------------------------------------|
D|3-----------------------3-------------------------------------------3---|
A|------------------------------------1-----------------------------------|
E|------------------------------------------------------------------------|

G|------------------------------------|
D|------------------------------------|
A|1-----------------------------------|
E|------------------------------------|

0:13

G|------------------------------------------------------------------------|
D|------------------------------------1-----------------------------------|
A|1-----------------------------------------------------------------------|
E|------------------------------------------------------------------------|

G|------------------------------------------------------------------------|
D|3-----------------------------------------------------------0-----------|
A|------------------------------------1-----------3-----------------------|
E|------------------------------------------------------------------------|

G|------------------------------------------------------------------------|
D|1-----------------------------------3-----------------------------------|
A|------------------------------------------------------------------------|
E|------------------------------------------------------------------------|

G|------------------------------------------------------------------------|
D|------------------------------------3-----------------------3-----------|
A|1-------------------------------1---------------------------------------|
E|------------------------------------------------------------------------|

0:32

G|------------------------------------------------------------------------|
D|------------------------------------1-------------------------------1---|
A|1-----------------------------------------------------------------------|
E|------------------------------------------------------------------------|

G|------------------------------------------------------------------------|
D|3-----------------------------------------------------------0-----------|
A|------------------------------------1-----------3-----------------------|
E|------------------------------------------------------------------------|

G|------------------------------------------------------------------------|
D|1-------------------------------1---3-------------------------------3---|
A|------------------------------------------------------------------------|
E|------------------------------------------------------------------------|

G|------------------------------------------------------------------------|
D|------------------------------------------------------------------------|
A|1-----------------------------------1-----------------------1---3---4---|
E|------------------------------------------------------------------------|

0:51

G|------------------------------------------------------------------------|
D|------------------------------------------------3-----------4-----------|
A|5-----------------------------------5-----------------------------------|
E|------------------------------------------------------------------------|

G|------------------------------------------------------------------------|
D|5-----------------------------------------------------------------------|
A|------------------------------------------------------------2-----------|
E|------------------------------------3-----------5-----------------------|

G|------------------------------------------------------------------------|
D|------------------------------------------------------------2-----------|
A|3-----------------------------------3-----------5-----------------------|
E|------------------------------------------------------------------------|

G|------------------------------------------------------------------------|
D|3-----------------------------------------------------------------------|
A|------------------------------------------------------------0-----------|
E|------------------------------------1-----------3-----------------------|

1:11

G|------------------------------------------------------------------------|
D|------------------------------------1-----------------------------------|
A|1-----------------------------------------------------------------------|
E|------------------------------------------------------------------------|

G|------------------------------------------------------------------------|
D|3-----------------------------------------------------------0-----------|
A|------------------------------------1-----------3-----------------------|
E|------------------------------------------------------------------------|

G|------------------------------------------------------------------------|
D|1-------------------------------1---3-------------------------------3---|
A|------------------------------------------------------------------------|
E|------------------------------------------------------------------------|

G|------------------------------------------------------------------------|
D|------------------------1-----------------------------------------------|
A|1-----------------------------------1-------------------------------1---|
E|------------------------------------------------------------------------|

1:29

G|------------------------------------------------------------------------|
D|3-----------------------------------3-----------------------------------|
A|------------------------------------------------------------------------|
E|------------------------------------------------------------------------|

G|------------------------------------------------------------------------|
D|3-----------------------3-----------------------------------------------|
A|------------------------------------1-----------------------------------|
E|------------------------------------------------------------------------|

G|------------------------------------|
D|------------------------------------|
A|1-----------------------1---3---4---|
E|------------------------------------|

1:41

G|------------------------------------------------------------------------|
D|------------------------------------------------3-----------4-----------|
A|5-----------------------------------5-----------------------------------|
E|------------------------------------------------------------------------|

G|------------------------------------------------------------------------|
D|5-----------------------------------------------------------------------|
A|------------------------------------------------------------2-----------|
E|------------------------------------3-----------5-----------------------|

G|------------------------------------------------------------------------|
D|------------------------------------------------------------2-----------|
A|3-----------------------------------3-----------5-----------------------|
E|------------------------------------------------------------------------|

G|------------------------------------------------------------------------|
D|3-----------------------------------------------------------------------|
A|------------------------------------------------------------0-----------|
E|------------------------------------1-----------3-----------------------|

2:00

G|------------------------------------------------------------------------|
D|------------------------------------1-------------------------------1---|
A|1-----------------------------------------------------------------------|
E|------------------------------------------------------------------------|

G|------------------------------------------------------------------------|
D|3-------------------------------3---------------------------0-----------|
A|------------------------------------1-----------3-----------------------|
E|------------------------------------------------------------------------|

G|------------------------------------------------------------------------|
D|1-------------------------------1---3-------------------------------3---|
A|------------------------------------------------------------------------|
E|------------------------------------------------------------------------|

G|------------------------------------------------------------------------|
D|------------------------------------------------------------------------|
A|1-----------------------------------1-----------------------1-----------|
E|------------------------------------------------------------------------|

2:19

G|------------------------------------------------------------------------|
D|1-----------------------1-----------3-----------------------3-----------|
A|------------------------------------------------------------------------|
E|------------------------------------------------------------------------|

G|------------------------------------------------------------------------|
D|------------------------------1-----------------------------------------|
A|1---------------------------------------------------1-------------------|

Almost there ...

Sign in to get your own page with links to favourite songs and more. You are just one click away...

Login with Facebook Login with Google