Log in

One click and you are in

Login with Facebook Login with Google

Why sign up and log in

Guitar Tabs Explorer
Hawk Nelson guitar tabs for Things we go through

Solo tabs with lyrics

-------------------------------------------------------------------------------
                     THINGS WE GO THROUGH - HAWK NELSON
-------------------------------------------------------------------------------
Tabbed by: JON
E-mail: crusader57jb@gmail.com

 THIS IS ONLY MY 2ND TAB BUT IM PERTY SURE ITS RIGHT. THE ONE PART IN THE

PRE-CHORUS SOUNDS OFF BUT IT AINT, PLAY AROUND WITH IT.
Tuning: C#G#C#F#A#d#

 =============================================================================
                                   INTRO
 =============================================================================

   BOTH GUITARS
   DISTORTION
d#|--------------------------------------------------------------------------|
A#|--------------------------------------------------------------------------|
F#|--------------------------------------------------------------------------|
C#|------------------5-5--7-7------------------------------------------------|x2
G#|-----5-5-3-3-2-2--3-3--5-5------5-5-3-3-2-2--3-5-2-0----------------------|
C#|-5-5------------------------5-5-------------------------------------------|

d#|--------------------------------------------------------------------------|
A#|--------------------------------------------------------------------------|
F#|--------------------------------------------------------------------------|
C#|-5~~~~--------------------------------------------------------------------|
G#|-5~~~~--------------------------------------------------------------------|
C#|-5~~~~--------------------------------------------------------------------|


  ============================================================================
                                    VERSE
  ============================================================================

   RHYTHM
   CLEAN
d#|--------------------------------------------------------------------------|
A#|--------------------------------------------------------------------------|
F#|-----------5+-------------------------------------------------------------|
C#|--------5+----------------------------------------------------------------|
G#|--------------------------------------------------------------------------|
C#|--------------------------------------------------------------------------|
  |                                                                          |
  | LEAD                                                                     |
  | CLEAN                                                                    |
D#|-------------3~------2~------0~------2~-----------------------------------|
A#|---------------3~------3~------3~------3~---------------------------------|
F#|--------------------------------------------------------------------------|
C#|--------------------------------------------------------------------------|
G#|--------------------------------------------------------------------------|
C#|--------------------------------------------------------------------------|

  ============================================================================
                                 PRE-CHORUS
  ============================================================================

d#|--------------------------------------------------------------------------|
A#|--------------------------------------------------------------------------|
F#|--------------------------------------------------------------------------|
C#|-5-5--X-X--X--5--7-7--X-X--X--7--9-9--X-X--X--9---------------------------|
G#|-5-5--X-X--X--5--7-7--X-X--X--7--9-9--X-X--X--9--5-3h5-2------------------|
C#|-5-5--X-X--X--5--7-7--X-X--X--7--9-9--X-X--X--9---------------------------|

d#|--------------------------------------------------------------------------|
A#|--------------------------------------------------------------------------|
F#|--------------------------------------------------------------------------|
C#|-5-5--X-X--X--5--7-7--X-X--X--7--2-2--X-X--X--2--5------------------------|
G#|-5-5--X-X--X--5--7-7--X-X--X--7--2-2--X-X--X--2--3------------------------|
C#|-5-5--X-X--X--5--7-7--X-X--X--7--2-2--X-X--X--2---------------------------|


  ============================================================================
                                   CHORUS
  ============================================================================

d#|--------------------------------------------------------------------------|
A#|--------------------------------------------------------------------------|
F#|--------------------------------------------------------------------------|
C#|-5-5-5-5--7-7--7----9-9-9-9--10-10--9----5-5-5-5--7-7-7-7--2-2-2-2--5--5--|
G#|-5-5-5-5--7-7--5----9-9-9-9--10-10--9----5-5-5-5--7-7-7-7--2-2-2-2--3--3--|
C#|-5-5-5-5--7-7-------9-9-9-9--10-10--9----5-5-5-5--7-7-7-7--2-2-2-2--------|


   INTRO x1


  ============================================================================
                                   VERSE 2
  ============================================================================

   RHYTHM
   CLEAN
d#|--------------------------------------------------------------------------|
A#|--------------------------------------------------------------------------|
F#|---5+---------------------------------------------------------------------|
C#|-5+-----------------------------------------------------------------------|
G#|--------------------------------------------------------------------------|
C#|--------------------------------------------------------------------------|
  |                                                                          |
  | LEAD                                                                     |
  | CLEAN                                                                    |
d#|--------------------------------------------------------------------------|
A#|---------------8~-------8---------8~-------8------------------------------|
F#|-------------7----7~------7~----7----7~------7~---------------------------|
C#|-----------5----------5---------------------------------------------------|
G#|------------------------------7----------5--------------------------------|
C#|--------------------------------------------------------------------------|
                                        /\
             PLAY THE LEAD 2x BUT STOP HERE THE SECOND TIME

  PRE-CHORUS

  CHORUS

  ===========================================================================
                                   BREAKDOWN
  ===========================================================================

d#|-------------------------------------------------------------------------|
A#|-------------------------------------------------------------------------|
F#|-------------------------------------------------------------------------|
C#|-X-X--X--2~--X-X--X--0~--5-5-5-5-5-5-5-5--5-5-5-5-5-5-5-5----------------|x2
G#|-X-X--X--2~--X-X--X--0~--5-5-5-5-5-5-5-5--5-5-5-5-5-5-5-5----------------|
C#|-X-X--X--2~--X-X--X--0~--5-5-5-5-5-5-5-5--5-5-5-5-5-5-5-5----------------|


d#|-------------------------------------------------------------------------|
A#|-------------------------------------------------------------------------|
F#|-4-4-4-4-4-4-4-4--5-5-5-5-4-4-4-4--7-7-7-7-7-7-7-7--7-7-7-7-7-7-7-7------|
C#|-X-X-X-X-X-X-X-X--X-X-X-X-X-X-X-X--X-X-X-X-X-X-X-X--X-X-X-X-X-X-X-X------|
G#|-2-2-2-2-2-2-2-2--3-3-3-3-2-2-2-2--5-5-5-5-5-5-5-5--5-5-5-5-5-5-5-5------|
C#|-------------------------------------------------------------------------|

d#|-------------------------------------------------------------------------|
A#|-------------------------------------------------------------------------|
F#|-12-12-12-12-12-12-12-12--11-11-11-11-11-11-11-11------------------------|
C#|--X--X--X--X--X--X--X--X---X--X--X--X--X--X--X--X----5~~--7~~------------|
G#|-10-10-10-10-10-10-10-10---9--9--9--9--9--9--9--9----5~~--7~~------------|
C#|-----------------------------------------------------5~~--7~~------------|


  REPEAT LEAD FROM VERSE 2

d#|-------------------------------------------------------------------------|
A#|-------------------------------------------------------------------------|
F#|-------------------------------------------------------------------------|
C#|-9--4--------------------------------------------------------------------|
G#|-9--4----5-5-5-5-5-5-5-5--7-7-7-7-7-7-7-7--2-2-2-2-2-2-2-2---------------|
C#|-9--4----5-5-5-5-5-5-5-5--7-7-7-7-7-7-7-7--2-2-2-2-2-2-2-2---------------|
           P.M._______________________________________________

d#|-------------------------------------------------------------------------|
A#|-------------------------------------------------------------------------|
F#|------------------7-7-7-7-7-7-7-7--9-9-9-9-9-9-9-9-----------------------|
C#|-7-7-7-7-7-7-7-7--5-5-5-5-5-5-5-5--7-7-7-7-7-7-7-7-----------------------|
G#|-5-5-5-5-5-5-5-5------------------------------------2-2-2-2-2-2-2-2------|
C#|----------------------------------------------------2-2-2-2-2-2-2-2------|
   P.M._______________________________________________________________

d#|-------------------------------------------------------------------------|
A#|-------------------------------------------------------------------------|
F#|-------------------------------------------------------------------------|
C#|-------------------------------------------------------------------------|
G#|-0-0-0-0-0-0-0-0---------------------------------------------------------|
C#|-0-0-0-0-0-0-0-0---------------------------------------------------------|
   P.M.____


   CHORUS


  ===========================================================================
                                    OUTRO
  ===========================================================================

d#|-------------------------------------------------------------------------|
A#|-------------------------------------------------------------------------|
F#|-------------------------------------------------------------------------|
C#|-5-5-5-5-5-5-5-5--7-7-7-7-7-7-7-7--9-9-9-9-9-9-9-9--10-10-10-10--9-9-9-9-|
G#|-5-5-5-5-5-5-5-5--7-7-7-7-7-7-7-7--9-9-9-9-9-9-9-9--10-10-10-10--9-9-9-9-|
C#|-5-5-5-5-5-5-5-5--7-7-7-7-7-7-7-7--9-9-9-9-9-9-9-9--10-10-10-10--9-9-9-9-|

d#|-------------------------------------------------------------------------|
A#|-------------------------------------------------------------------------|
F#|-------------------------------------------------------------------------|
C#|-5-5-5-5-5-5-5-5--7-7-7-7-7-7-7-7--2-2-2-2-2-2-2-2--10--10\--------------|
G#|-5-5-5-5-5-5-5-5--7-7-7-7-7-7-7-7--2-2-2-2-2-2-2-2--10--10\--------------|
C#|-5-5-5-5-5-5-5-5--7-7-7-7-7-7-7-7--2-2-2-2-2-2-2-2--10--10\--------------|

GREAT SONG FROM BACK WHEN HAWK NELSON WAS PUNK. PLZ COMMENT AND RATE!!!
THANKS YALL

************************************

| /   slide up
| \   slide down
| h   hammer-on
| p   pull-off
| ~   vibrato
| +   natural harm
| *   artificial harm
| x   Mute note
| b   Bend
| pb  Pre-bend
| br  Bend release
| pbr Pre-bend release
| brb Bend release bend

Almost there ...

Sign in to get your own page with links to favourite songs and more. You are just one click away...

Login with Facebook Login with Google