Search tabs and chords

Search for song, artist or band

Log in

One click and you are in

Login with Facebook Login with Google

Why sign up and log in

Guitar Tabs Explorer
Hawk Nelson guitar tabs for Crazy love

Guitar tabs

Crazy love
Hawk Nelson - Best band in the world
Tabbed by:England5
Tuning:Standard
Enjoy the tab! =D
Intro x2
Part 1                  Part 2
|----------------------|----------------------------------|
|----------------------|----------------------------------|
|---------44-5--5555-5-|----------------------------------|
|--7777-7-44-5--5555-5-|-55-3-33333333-55555555-----------|
|--7777-7-22-3--3333-3-|-55-3-33333333-55555555-----------|
|--5555-5--------------|-33-1-11111111-33333333-----------|

Verse x2
|--------------------------------------------------------|
|--------------------------------------------------------|
|--------------------------------------------------------|
|---7-------------3-------------10----------5------------|
|---7-------------3-------------10----------5------------|
|---5-------------1-------------8-----------3------------|

Chorus x2
|--------------------------------------------------------|
|--------------------------------------------------------|
|---------44-5--5555-5-----------------------------------|
|--7777-7-44-5--5555-5-55-3-33333333-55555555------------|
|--7777-7-22-3--3333-3-55-3-33333333-55555555------------|
|--5555-5--------------33-1-11111111-33333333------------|

Intro Part 1 x1

Verse x2

Chorus x2

Solo x2
|--------------------------------------------------------|
|--------------------------------------------------------|
|--------------------------------------------------------|
|--3----------10---------7--------------5----------------|
|--3----------10---------7--------------5----------------|
|--1----------8----------5--------------3----------------|

Bridge x1
|--------------------------------------------------------|
|--------------------------------------------------------|
|--------------------------------------------------------|
|---7-------------3-------------10----------5------------|
|---7-------------3-------------10----------5------------|
|---5-------------1-------------8-----------3------------|



Chorus x6

Outro x 2

|--------------------------------------------------------|
|--------------------------------------------------------|
|---------44-5--5555-5-----------------------------------|
|--7777-7-44-5--5555-5--55-3-33333333-55555555-----------|
|--7777-7-22-3--3333-3--55-3-33333333-55555555-----------|
|--5555-5---------------33-1-11111111-33333333-----------|

Other versions of Crazy Love

Crazy loveChords

Almost there ...

Sign in to get your own page with links to favourite songs and more. You are just one click away...

Login with Facebook Login with Google